Cifra Club

Separate Ways

Journey

Tab de bajo: Principal
Intro / Verso:
G|---------------------------------------------------------------------------|
D|---------------------------------------------------------------------------|
A|----77--77-7--77-----------------------------------------------------------|
E|---------------0-----------------------------------------------------------|

Pre-Refrão:
G|---------------------------------------------------------------------------|
D|---------------------------------------------------------------------------|
A|----3--5--3333--5555-5--3333----3--5--3333--5555-5--33----5--77------------|
E|---------------------------------------------------------------------------|

Refrão:
G|---------------------------------------------------------------------------|
D|---------------------------------------------------------------------------|   (2x)
A|----777-7777---555--5555--333--3333--0000----5--6--7-----------------------|
E|---------------------------------------------------------------------------|

Verso 2:
G|---------------------------------------------------------------------------|
D|---------------------------------------------------------------------------|
A|----77--77-7--77-----------------------------------------------------------|
E|---------------0-----------------------------------------------------------|

Pre-Refrão 2:
G|---------------------------------------------------------------------------|
D|---------------------------------------------------------------------------|
A|----3--5--3333--5555-5--3333----3--5--3333--5555-5--33----5--77------------|
E|---------------------------------------------------------------------------|

Refrão 2:
G|---------------------------------------------------------------------------|
D|---------------------------------------------------------------------------|   (2x)
A|----777-7777---555--5555--333--3333--0000----5--6--7-----------------------|
E|---------------------------------------------------------------------------|

Solo:
G|---------------------------------------------------------------------------|
D|---------------------------------------------------------------------------|   (2x)
A|----777-7-7-77---555--5555--333--3333--0000----5--6--7---------------------|
E|---------0-0---------------------------------------------------------------|

G|---------------------------------------------------------------------------|
D|---------------------------------------------------------------------------|
A|----7----------3----0---------7---5---3---2222-----------------------------|
E|----0----3-----------------------------------------------------------------|

Refrão 3:
G|---------------------------------------------------------------------------|
D|---------------------------------------------------------------------------|   (4x)
A|----777-7-7-77---555--5555--333--3333--0000----5-(55)---6-(66)---7---------|
E|--------(0-0)--------------------------------------------------------------|

Final:
G|---------------------------------------------------------------------------|
D|---------------------------------------------------------------------------|
A|----7---77----7----77------------------------------------------------------|
E|----0---------0------------------------------------------------------------|
Composição de Jonathan Cain / Steve Perry
Colaboración y revision:
  • Mansinho Jr.
98 reproducciones

0 comentarios

Ver todos os comentários

¿Conseguiste tocar?

2 Tocaram 0 Ainda não

Grave um vídeo tocando Separate Ways e nos envie!

00:00 / 00:00
outros vídeos desta música
repetir qualidade Automático
Outros vídeos desta música
00:00 / 00:00
Automático
OK