Cifra Club

Te Lo Pido Por Favor

Juan Gabriel

Cifrado: Principal (guitarra y guitarra eléctrica)
Selo Cifra Club: esta cifra foi revisada para atender aos critérios oficiais da nossa Equipe de Qualidade.
tono: D
[intro]

Guitarra 1
E|----2-0----2----2*3----2-|
B|---3------3----3------3--|
G|--2------2----2------2---|
D|-0------0----0------0----|  (4x)
A|-------------------------|
E|-------------------------|

Guitarra 2
E|----2~~~~----------------|
B|---3~~~~-----------------|
G|--2~~~~~-----------------|
D|-0~~~~-------------------|
A|-------------------------|
E|-------------------------|

Guitarra 1
E|----------|
B|----------|
G|-----0----|
D|-0*2---0--|
A|----------|
E|----------|


( G  D  G  D  A  D )

       Bm            Em          A
Donde estes, hoy y siempre
E|--------------------------------------|
B|--------------------------------------|
G|--------------------------------------|
D|------------------------------0-------|
A|--------------------------0*2---0-----|
E|--------------------------------------|

                D      Bm
Yo te quiero conmigo
E|--------------------------------------|
B|--------------------------------------|
G|--------------------------------------|
D|---------------0----------------------|
A|-----------------------2--------------|
E|--------------------------------------|

             Em    F#7
Necesito cuidado, 
E|--------------------------------------|
B|--------------------------------------|
G|--------------------------------------|
D|--------------------------------------|
A|--------------------------------------|
E|------------0-------2-----------------|

          Bm
Necesito de ti
E|-------------------2-------------------|
B|---------------------3-----------------|
G|-----------------------4---------------|
D|-------------------------4-------------|
A|---------------------------------------|
E|---------------------------------------|


                  Em             A
Si me voy, donde vaya
E|--------------------------------------|
B|--------------------------------------|
G|--------------------------------------|
D|------------------------------0-------|
A|--------------------------0*2---0-----|
E|------------------0-------------------|

                D    Bm
Yo te llevo conmigo
E|--------------------------------------|
B|--------------------------------------|
G|--------------------------------------|
D|---------------0----------------------|
A|---------------------2----------------|
E|--------------------------------------|

                Em   F#7
No me dejes ir solo, 
E|--------------------------------------|
B|--------------------------------------|
G|--------------------------------------|
D|--------------------------------------|
A|--------------------------------------|
E|----------------0-----2---------------|
 
         Bm   B7
Necesito de ti
E|--------------------------------------|
B|--------------------------------------|
G|--------------------------------------|
D|--------------------------------------|
A|----------2---------------------------|
E|--------------------------------------|

                  Em
Tu me sabes bien cuidar 
                   A
Tu me sabes bien guiar
E|-------------------------------------|
B|-------------------7---5-------------|
G|-------------------6---6-------------|
D|-------------------------------------|
A|-------------------------------------|
E|-------------------------------------|
                       D
Todo lo haces muy bien tu
                       Bm
Ser muy buena es tu virtud
E|------------------------------2-------|
B|----------------------------3---------|
G|--------------------------4-----------|
D|--------------------------------------|
A|------------------------2-------------|
E|--------------------------------------|

                 Em
Como te puedo pagar
                    A
Todo lo q haces por mi
E|-------------------------------------|
B|-------------------7---5-------------|
G|-------------------6---6-------------|
D|-------------------------------------|
A|-------------------------------------|
E|-------------------------------------|
                 D
Todo lo feliz q soy
                  Bm
Todo este inmenso amor
  
                  Em
Solamente con mi vida
E|--------------------3-----------------|
B|--------------------3-----------------|
G|--------------------4-----------------|
D|--------------------------------------|
A|--------------------------------------|
E|--------------------------------------|
           F#7          Bm   B7
Pues ten mi vida, te la doy
E|-------------------------------------|
B|-------------------------------------|
G|-------------6~-4~--6-7~-------------|
D|-------------------------------------|
A|-------------------------------------|
E|-------------------------------------|
                  Em            A
Pero no me dejes nunca, nunca nunca
                  D
Te lo pido por favor



em-----a-------d-----bm---
em-----a-------d-----b7


                  Em
Tu me sabes bien guiar
                   A
Tu me sabes bien cuidar
E|-------------------------------------|
B|-------------------7---5-------------|
G|-------------------6---6-------------|
D|-------------------------------------|
A|-------------------------------------|
E|-------------------------------------|
                       D
Todo lo haces muy bien tu
                       Bm
Ser muy buena es tu virtud

E|--------------------------------2---|
B|------------------------------3---3-|
G|----------------------------4-------|
D|--------------------------4---------|
A|------------------------------------|
E|------------------------------------|

                 Em
Como te puedo pagar
                    A
Todo lo q haces por mi
E|-------------------------------------|
B|-------------------7---5-------------|
G|-------------------6---6-------------|
D|-------------------------------------|
A|-------------------------------------|
E|-------------------------------------|
                 D
Todo lo feliz q soy
                  Bm
Todo este inmenso amor
  
                  Em
Solamente con mi vida
           F#7          Bm   B7
Pues ten mi vida, te la doy
E|-------------------------------------|
B|-------------------------------------|
G|-------------6~-4~--6-7~-------------|
D|-------------------------------------|
A|-------------------------------------|
E|-------------------------------------|

                  Em            A
Pero no me dejes nunca, nunca nunca
E|-------------------------------------|
B|------------------------------7---5--|
G|------------------------------6---6--|
D|-------------------------------------|
A|-------------------------------------|
E|-------------------------------------|
                  D     C
Te lo pido por favooooooooor
   B             Em            A
Pero no me dejes nunca, nunca nunca
E|-------------------------------------|
B|------------------------------7---5--|
G|------------------------------6---6--|
D|-------------------------------------|
A|-------------------------------------|
E|-------------------------------------|
                  D      C
Te lo pido por favooooooooor
   B                   Em             A
     pero no me dejes nunca, nunca nunca
E|-------------------------------------------|
B|------------------------------------7---5--|
G|------------------------------------6---6--|
D|-------------------------------------------|
A|-------------------------------------------|
E|-------------------------------------------|
                 D
Te lo pido por favor
Otros videos de esta canción
    7.295 exhibiciones
      • ½ Tono
      • A
      • Bb
      • B
      • C
      • Db
      • D
      • Eb
      • E
      • F
      • F#
      • G
      • Ab
    • Agregar a la lista

    Afinação da cifra

    Afinador online

      Ops (: Contenido disponible solo en portugués.
      OK