Cifra Club

Hajimete Koi Wo Shita Kioku

Kami Nomi Zo Shiru Sekai

Cifrado: Principal (guitarra y guitarra eléctrica)
Já pensou em usar uma coleção de roupas do Cifra Club? Responda as perguntas abaixo e nos ajude nessa missão! →
tono: D
Intro: ( D )
       ( D D/F# G )(2x)


E|------------------------------------------------------------|      
B|-3-3-2-3-2-5-3-2-3-----3-3-2-3-2-5-3-5/7-5------------------|  
D|------------------------------------------------------------|
A|------------------------------------------------------------|
E|------------------------------------------------------------|

E|--------------------------------3--3--3-----------|
B|----3-3-2-3-2-5-3-2-3-----------3--3--3-----------|
G|--------------------------------0--0--0-----------|
D|--------------------------------0--0--0-----------|
A|--------------------------------2--2--2-----------|
E|--------------------------------3--3--3-----------|



D              A                G          A   A#°   Bm
Kawari yuku nichijou ni nomi komareta mama
A             G                     A
Ren'ai nante shinai to omotteta
D               A            G         A    A#°     Bm
Hito wo suki ni naru no wa rikutsu janai mitai
A         G    A    D    D/C#
Watashi koi wo shita yo
Bm  Bb°    A     A/G#
Mou ichido ugokidasu
G       Em      A
Awaku itoshii hibi

G                         D/F#         Bm
Nido nai shunkan to kanshoku wa
Em   F#m      Bm-Bb*-A-A/G#
Kiete ita keredo
G                         D/F#         Bm
Kokoro ni mada nokoru junsui to
G         D/F#     Em         Bm    G  (Na hora da  G são 3 batidas 2vezes )
Hajimete koi wo shita kioku

D              A                G          A   A#°   Bm
Nigiyaka na machinami wo hashitte surinuketa
A             G                     A
Kimi no sugata ima sugu mitakute
D               A            G         A    A#°     Bm
Hashitta bun toki doki kodou wo purasu shita
A         G    A    D    D/C#
Watashi koi wo shita yo

Bm  Bb°    A     A/G#
Me wo tojite omoidasu
G       Em      A
Amaku koi shi, koe

G                         D/F#         Bm
Kizu tsuku koto bakari kangaete
Em   F#m      Bm-Bb*-A-A/G#
Tomatte itanda
G                         D/F#         Bm
Futatabi ugokidasu junsui to
G         D/F#     Em         Bm    G
Hajimete koi wo shita kioku

G                         D/F#         Bm
Nido nai shunkan to kanshoku wa
Em   F#m
Kiete ita keredo
G                         D/F#         Bm
Kokoro ni mada nokoru junsui to
G         D/F#     Em         Bm
Hajimete koi wo shita kioku
G         D/F#     Em         Bm
Hajimete koi wo shita kioku
D|-D/F#-G 2x
D
Composición de Asumi Kana
Colaboración y revisión:
  • carlos eduardo
68 vistas
    • ½ Tono
    • A
    • Bb
    • B
    • C
    • Db
    • D
    • Eb
    • E
    • F
    • F#
    • G
    • Ab
  • Agregar a la lista

    0 comentarios

    Ver todos los comentarios

    ¿Lograste tocar?

    1 Tocaron 0 Aún no

    ¡Graba un video tocando Hajimete Koi Wo Shita Kioku y envíanoslo!

    00:00 / 00:00
    Outros vídeos desta música
    Repetir Calidad Automático
    Outros vídeos desta música
    00:00 / 00:00
    Automático
    OK