Cifra Club

Aprenda

Behind These Hazel Eyes

Kelly Clarkson

Tablatura: Versão 6 (guitarra)
Tom: Ab (con acordes en la forma de F#) Capotraste na 2ª casa
Tabbed by: Imploder
Email: *

Tuning: Standard E

Description:

As you can see, I've tabbed both ways of
playing the verse melodies, with or without a capo.

This tab might look like a mess, but bear in mind that
it's my first real tab.
I've tried to make this one comprehensive, that also explains
why it's so big.

I'm a little confused about the strumming that's used in the studio version,
especially in the pre-choruses and the awesome bridge. If it sounds wrong, feel free to 
out your own strumming pattern.

I've spent the whole day now using my ear and tweaking this tab to
the best of my abilities, but there's still some things I haven't
nailed yet. For example, the Pre-chorus section is very weak because
I just can't figure out the chords/powerchords in that part of the song.
I tried to make it sound as close as possible, but I know it's not 100% correct.
Feel free to e-mail or comment on that section as I could need a little help.

Also, the "build-up" before the last choruses is very sketchy,
it still sounds kinda correct though.


There is a small amount of notes that
I haven't included, such as the muted notes,
the various palm mutes and the heavy use of feedback.
I just wanted to give you guys a general idea on how to
play this awesome song.

The verse riff can also be used in the choruses... it sounds
really good if both melodies are played at the same time.

Comments are much appreciated, thanks.
Now, lets get down to business.

(00:00)
Intro, no capo, distorted guitar:

e----------------------------------|
B--------7--7-7-7------------------|
G--------7--7-7-7------------------|
D--4--4--5--5-5-5--7--7--2--2-2-2--|
A--4--4------------7--7--2--2-2-2--|
E--2--2------------5--5--0--0-0-0--| x1

e----------------------------------|
B--------7--7-7-7------------------|
G--------7--7-7-7------------------|
D--4--4--5--5-5-5--7--7--2---------|
A--4--4------------7--7--2---------|
E--2--2------------5--5--0---------| x1


(00:11)
1st verse, capo 2nd fret, clean guitar:

e--------------------------------------------------|
B--------------------------------------------------|
G--------0--------0--------------0--------0--------|
D-----2--------0-----0--------0--------4-----4-----|
A-----------3-----------3-----------5-----------5--|
E--0-----------------------3-----------------------| x4


(00:11)
1st verse w/o a capo, clean guitar:

e--------------------------------------------------|
B--------------------------------------------------|
G--------2--------2--------------2-----1--2--1-----|
D-----4-----0--2-----2--0-----2-----2-----------2--|
A--------------------------0-----------------------|
E--2-----------------------------------------------| x4


(00:21)
1st verse, capo 2nd fret, clean/distorted guitar:

e--3--3--3--3--3--3--3--3--|
B--3--3--3--3--3--3--3--3--|
G--------------------------|
D--------------------------|
A--------------------------|
E--------------------------| x2


(00:21)
1st verse, no capo, clean/distorted guitar:

e--5--5--5--5--5--5--5--5--|
B--5--5--5--5--5--5--5--5--|
G--------------------------|
D--------------------------|
A--------------------------|
E--------------------------| x2


(00:32)
1st pre-chorus, no capo, distorted guitar:

e----------------------------------------------|
B----------------------------------------------|
G--2--2--2-2--6--6--6-6--2--2--2-2--7-7-7-7-7--|
D--2--2--2-2--6--6--6-6--2--2--2-2--7-7-7-7-7--|
A--0--0--0-0--4--4--4-4--0--0--0-0--9-9-9-9-9--|
E----------------------------------------------| x1


(00:43)
1st chorus, no capo, distorted guitar:

e--------------------------------------------------|
B--------------7--7--7--7--------------------------|
G--------------7--7--7--7--------------------------|
D--4--4--4--4--5--5--5--5--7--7--7--7--2--2--2--2--|
A--4--4--4--4--------------7--7--7--7--2--2--2--2--|
E--2--2--2--2--------------5--5--5--5--0--0--0--0--| x2

e--------------------------------------------------|
B--------------7--7--7--7--------------------------|
G--------------7--7--7--7--------------------------|
D--4--4--4--4--5--5--5--5--7-----------------------|
A--4--4--4--4--------------7-----------------------|
E--2--2--2--2--------------5-----------------------| x1

e--------------------------------------------------|
B--------7--7-7-7----------------------------------|
G--------7--7-7-7----------------------------------|
D--4--4--5--5-5-5--7--7--0-------------------------|
A--4--4------------7--7--0-------------------------|
E--2--2------------5--5--2-------------------------| x1


(01:04)
2nd verse, capo 2nd fret, clean guitar:

e--------------------------------------------------|
B--------------------------------------------------|
G--------0--------0--------------0--------0--------|
D-----2--------0-----0--------0--------4-----4-----|
A-----------3-----------3-----------5-----------5--|
E--0-----------------------3-----------------------| x4


(01:04)
2nd verse w/o a capo, clean guitar:

e--------------------------------------------------|
B--------------------------------------------------|
G--------2--------2--------------2-----1--2--1-----|
D-----4-----0--2-----2--0-----2-----2-----------2--|
A--------------------------0-----------------------|
E--2-----------------------------------------------| x4


(01:15)
2nd verse, capo 2nd fret, clean/distorted guitar:

e--3--3--3--3--3--3--3--3--|
B--3--3--3--3--3--3--3--3--|
G--------------------------|
D--------------------------|
A--------------------------|
E--------------------------| x2


(01:15)
2nd verse, no capo, clean/distorted guitar:

e--5--5--5--5--5--5--5--5--|
B--5--5--5--5--5--5--5--5--|
G--------------------------|
D--------------------------|
A--------------------------|
E--------------------------| x2


(01:25)
2nd pre-chorus, no capo, distorted guitar:

e----------------------------------------------|
B----------------------------------------------|
G--2--2--2-2--6--6--6-6--2--2--2-2--7-7-7-7-7--|
D--2--2--2-2--6--6--6-6--2--2--2-2--7-7-7-7-7--|
A--0--0--0-0--4--4--4-4--0--0--0-0--9-9-9-9-9--|
E----------------------------------------------| x1


(01:36)
2nd chorus, no capo, distorted guitar:

e--------------------------------------------------|
B--------------7--7--7--7--------------------------|
G--------------7--7--7--7--------------------------|
D--4--4--4--4--5--5--5--5--7--7--7--7--2--2--2--2--|
A--4--4--4--4--------------7--7--7--7--2--2--2--2--|
E--2--2--2--2--------------5--5--5--5--0--0--0--0--| x2

e--------------------------------------------------|
B--------------7--7--7--7--------------------------|
G--------------7--7--7--7--------------------------|
D--4--4--4--4--5--5--5--5--7-----------------------|
A--4--4--4--4--------------7-----------------------|
E--2--2--2--2--------------5-----------------------| x1

e--------------------------------------------------|
B--------7--7-7-7----------------------------------|
G--------7--7-7-7----------------------------------|
D--4--4--5--5-5-5--7--7--2-------------------------|
A--4--4------------7--7--2-------------------------|
E--2--2------------5--5--0-------------------------| x1


(01:57)
1st Bridge, no capo, distorted guitar:

e-----------------------------------------|
B-----------------------------------------|
G--4--4--x-x--x-x--x-x--2--2-2-2-2-2-2-2--|
D--4--4--x-x--x-x--x-x--2--2-2-2-2-2-2-2--|
A--2--2--x-x--x-x--x-x--0--0-0-0-0-0-0-2--|
E-----------------------------------------| x1

e-----------------------------------------|
B-----------------------------------------|
G--4--4--x-x--x-x--x-x--------------------|
D--4--4--x-x--x-x--x-x--4--4-4-4-4-4-4-4--|
A--2--2--x-x--x-x--x-x--4--4-4-4-4-4-4-4--|
E-----------------------2--2-2-2-2-2-2-2--| x1

e-----------------------------------------|
B-----------------------------------------|
G--4--4--x-x--x-x--x-x--2--2-2-2-2-2-2-2--|
D--4--4--x-x--x-x--x-x--2--2-2-2-2-2-2-2--|
A--2--2--x-x--x-x--x-x--0--0-0-0-0-0-0-2--|
E-----------------------------------------| x1

e--------------------------------------------------|
B--------------------------------------------------|
G--4--4--4--4--4--4--4--4--7--7--7--7--9--9--9--9--|
D--4--4--4--4--4--4--4--4--7--7--7--7--9--9--9--9--|
A--2--2--2--2--2--2--2--2--5--5--5--5--7--7--7--7--|
E--------------------------------------------------| x1


(02:19)
3rd verse, capo 2nd fret, clean guitar:

e--------------------------------------------------|
B--------------------------------------------------|
G--------0--------0--------------0--------0--------|
D-----2--------0-----0--------0--------4-----4-----|
A-----------3-----------3-----------5-----------5--|
E--0-----------------------3-----------------------| x2


(02:19)
3rd verse w/o a capo, clean guitar:

e--------------------------------------------------|
B--------------------------------------------------|
G--------2--------2--------------2-----1--2--1-----|
D-----4-----0--2-----2--0-----2-----2-----------2--|
A--------------------------0-----------------------|
E--2-----------------------------------------------| x2


(02:26)
Build-up, no capo, distorted guitar:

   PM------------------|
e----------------------|
B----------------------|
G----------------\-----|
D--7--7--7--7--7-\-----|
A--7--7--7--7--7-\-----|
E--5--5--5--5--5-------| x1


(02:29)
3rd chorus, no capo, distorted guitar:

e--------------------------------------------------|
B--------------7--7--7--7--------------------------|
G--------------7--7--7--7--------------------------|
D--4--4--4--4--5--5--5--5--7--7--7--7--2--2--2--2--|
A--4--4--4--4--------------7--7--7--7--2--2--2--2--|
E--2--2--2--2--------------5--5--5--5--0--0--0--0--| x2

e--------------------------------------------------|
B--------------7--7--7--7--------------------------|
G--------------7--7--7--7--------------------------|
D--4--4--4--4--5--5--5--5--7-----------------------|
A--4--4--4--4--------------7-----------------------|
E--2--2--2--2--------------5-----------------------| x1

e--------------------------------------------------|
B--------7--7-7-7----------------------------------|
G--------7--7-7-7----------------------------------|
D--4--4--5--5-5-5--7--7--2-------------------------|
A--4--4------------7--7--2-------------------------|
E--2--2------------5--5--0-------------------------| x1


(02:50)
4th chorus, no capo, distorted guitar:

e--------------------------------------------------|
B--------------7--7--7--7--------------------------|
G--------------7--7--7--7--------------------------|
D--4--4--4--4--5--5--5--5--7--7--7--7--2--2--2--2--|
A--4--4--4--4--------------7--7--7--7--2--2--2--2--|
E--2--2--2--2--------------5--5--5--5--0--0--0--0--| x2

e--------------------------------------------------|
B--------------7--7--7--7--------------------------|
G--------------7--7--7--7--------------------------|
D--4--4--4--4--5--5--5--5--7-----------------------|
A--4--4--4--4--------------7-----------------------|
E--2--2--2--2--------------5-----------------------| x1

e--------------------------------------------------|
B--------7--7-7-7----------------------------------|
G--------7--7-7-7----------------------------------|
D--4--4--5--5-5-5--7--7--2-------------------------|
A--4--4------------7--7--2-------------------------|
E--2--2------------5--5--0-------------------------| x1


End of tab.

Here's the song layout:

Intro x1
Verse x4
Pre-chorus x1
Chorus x1
Verse x4
Pre-chorus x1
Chorus x1
Bridge x1
Chorus 2x
Compositor Kelly Clarkson / Lukasz Dr. Luke Gottwald
    • ½ Tom
    • A
    • Bb
    • B
    • C
    • Db
    • D
    • Eb
    • E
    • F
    • F#
    • G
    • Ab
  • Adicionar à lista

    0 comentarios

    Mostrar mais comentários

    ¿Conseguiste tocar?

    0 Tocaron 0 Ainda não

    Grave um vídeo tocando Behind These Hazel Eyes e mande pra gente!

    00:00 / 00:00
    outros vídeos desta música
    repetir qualidade Automático
    Outros vídeos desta música
    00:00 / 00:00
    Automático
    OK