Cifra Club

I Still Dream Of You

Kina Beats

Cifrado: Principal (guitarra y guitarra eléctrica)
tono: F
[Intro]

E|---------------------------------------------------------------------------|
B|---------------------------------------------------------------------------|
G|---------------------------------------------------------------------------|
D|-2------5------4-----------------------------------------------------------|
A|-3------7------5-----------------------------------------------------------|
E|-3------7------5-----------------------------------------------------------|

E|---------------------------------------------------------------------------|
B|---------------------------------------------------------------------------|
G|---------------------------------------------------------------------------|
D|-2------5------4---5---4---2------5----------------------------------------|
A|-3------5------5---7---5---3------7----------------------------------------|
E|-3------7------5---7---5---3------7----------------------------------------|
Compositor no encontrado.
Colaboración y revisión:
  • RAFAEL GALVÃO
    • ½ Tono
    • A
    • Bb
    • B
    • C
    • Db
    • D
    • Eb
    • E
    • F
    • F#
    • G
    • Ab
  • Agregar a la lista

    0 comentarios

    Ver todos los comentarios

    ¿Lograste tocar?

    0 Tocaron 0 Aún no

    ¡Graba un video tocando I Still Dream Of You y envíanoslo!

    00:00 / 00:00
    Otros videos de esta canción
    Repetir Calidad Automático
    Otros videos de esta canción
    00:00 / 00:00
    Automático
    OK