Cifra Club

Aprenda

Pais e Filhos

Legião Urbana

Tab de bajo: Versão 1
Pt1
G|------------------------------|
D|------------------------------| 
A|-0-2-3----5-------------------| 
E|---------------3--------------| (9x)

Pt2
G|--------------------------------------------------------------------------------------------------------|
D------------3----3----2-2----2---------------------------------------------------------------------------|
A|-3---5--5----3-----3----------3--3--3-3--2--2--2-2--0--0--0-0------0--0----------3--5--5-5--5--5--5-5---|
E|--------------------------0----------------------------------0---------0-5------------------------------|

Pt1
G|------------------------------|
D|------------------------------|
A|-0-2-3----5-------------------|
E|---------------3--------------| (5x)

Pt3
G|--------------------------------------------------------------------------------------------------------|
D|--3---3-----2--2-----2----------------------------------------------------------------------------------|
A|----3----3------------3--3--3-3--2--2--2-2--0--0--0-0----0--0--0-0-----3--5--5--5-5----5-5--5--5-5-5\---|
E|-----------------0-----------------------------------0-----------------------------5--------------------|

  É preciso amar...

G|--------------------------------------------------------------------------|
D|--------------------------------------------5-----------------------------|
A|----------------2-3--3--0-2h3--3-5-7--7--5-7---7---7-5-3--3--0-3-3-2-0----|
E|-3--3--0-2h3-3------------------------------------------------------------|

G|-----------------------------------------------------------|
D|--------------------------------------------5--------------|
A|--------------2-3--3--0-0-3-3-3-5-7---7--5-7---7-5-3-------|
E|-3--3--0-2h3-3---------------------------------------------|

Pt1
G|------------------------------|
D|------------------------------|
A|-0-2-3----5-------------------|
E|---------------3--------------| (12x)

  Eu moro com meus pais...

Pt3
G|--------------------------------------------------------------------------------------------------------|
D|--3---3-----2--2-----2----------------------------------------------------------------------------------|
A|----3----3------------3--3--3-3--2--2--2-2--0--0--0-0----0--0--0-0-----3--5--5--5-5----5-5--5--5-5-5\---|
E|-----------------0-----------------------------------0-----------------------------5--------------------|

Pt4
G|--------------------------------------------------------------------------------------------------------------|
D|-------------3---3-3---2-2---2--------------------------------------------------------------------------------|
A|-0-2-3---5-5---3-----3---------2-3--3-3-3--3-2--2--2-2------------------------3-5--5-5-5--5-5-5--5-5-0-5-5\---|
E|---------------------------0---------------------------5--5-5-0--0-5--5-5-0-5---------------------------------|

G|-------------------------------------------------------------------|
D|--------------------------------------------5----------------------|
A|---------------2-3--3--0-0-3-3-3-5-7--7--5-7---7-5-3--3--0-3-3-2-0-|
E|-3--3--0-2h3-3-----------------------------------------------------|

G|-------------------------------------------------------------------|
D|--------------------------------------------5----------------------|
A|---------------2-3--3--0-0-3-3-3-5-7--7--5-7---7-5-3--3--0-3-5-3-2-|
E|-3--3--0-2h3-3-----------------------------------------------------|
 
G|-------------------------------------------------------------------|
D|---------------------------------------5-7-5-----------------------|
A|--------------2-3--3--0-3-3-3-5-7--7--5-7-----3-3-0-3-3-2-0--------|
E|-3-3-0-3-3--3------------------------------------------------------|

G|------------------------------------------------------------|
D|----------------------------------------5-------------------|
A|--------------2-3--3--0-3-3-3-5-7--7--5-7---7-5-3-3-3-3-----|
E|-3-3-0-3-3--3-----------------------------------------------|

  Você Culpa os seus pais por tudo....

Pt1
G|------------------------------|
D|------------------------------|
A|-0-2-3----5-------------------|
E|---------------3--------------| (9x)
Composição de Dado Villa-Lobos / Marcelo Bonfá / Renato Russo
Colaboración y revision:
181 reproducciones

0 comentarios

Ver todos os comentários
00:00 / 00:00
outros vídeos desta música
repetir qualidade Automático
Outros vídeos desta música
00:00 / 00:00
Automático
OK