Cifra Club

If Johnny Cash Was Here

Lord Of The Lost

Cifrado: Principal (guitarra y guitarra eléctrica)
Selo Cifra Club: esta cifra foi revisada para atender aos critérios oficiais da nossa Equipe de Qualidade.
tono: Gm
  Gm       Gm       Bb      F      
E|----------------|----------------|
B|----------------|---------------1|
G|-----3-------3--|-----3----------|
D|---0---3---0---0|---0---0-----3--|
A|----------------|-1---------3----|
E|-3-------3------|---------1------|

[Verse]

  Gm       Gm       Bb      F      
E|----------------|----------------|
B|----------------|---------------1|
G|-----3-------3--|-----3----------| 32x
D|---0---3---0---0|---0---0-----3--|
A|----------------|-1---------3----|
E|-3-------3------|---------1------|


[Alternative Verse for 2nd Guitar]

E|----------------|----------------|----------------|---------1---3--|
B|-3--------------|-4-------1------|-3--------------|-4--------------|
G|----------------|-------------3--|----------------|----------------|
D|----------------|----------------|----------------|----------------|
A|----------------|----------------|----------------|----------------| \
E|----------------|----------------|----------------|----------------| |
                                                                       |
E|----------------|----------------|----------------|----------------| |
B|-3--------------|-4-------1------|----------------|-4-------1------| |
G|----------------|-------------3--|-3---3----------|-------------3--| |
D|----------------|----------------|----------------|----------------| |
A|----------------|----------------|----------------|----------------| |
E|----------------|----------------|----------------|----------------| |
                                                                        > 2x
E|-3--------------|-6-------1------|-3--------------|-6-------1------| |
B|----------------|-------------4--|----------------|-------------4--| |
G|----------------|----------------|----------------|----------------| |
D|----------------|----------------|----------------|----------------| |
A|----------------|----------------|----------------|----------------| |
E|----------------|----------------|----------------|----------------| |
                                                                       |
E|----------------|----------------|----------------|----------------| |
B|-3--------------|-4-------1------|----------------|-4-------1------| /
G|----------------|-------------3--|-3---3----------|-------------3--|
D|----------------|----------------|----------------|----------------|
A|----------------|----------------|----------------|----------------|
E|----------------|----------------|----------------|----------------|

[Chorus]

Faster, Triplet-Rythm

   Gm                       Bb                       Eb                       Gm
E|-3-----3-----3-----3----|-1-----1-----1-----1----|------------------------|------------------------|
B|---3-----3-----3-----3--|---3-----3-----3-----3--|-4-----4-----4-----4----|-3-----3-----3-----3----|
G|-----0-----0-----0-----0|-----3-----3-----3-----3|---3-----3-----3-----3--|---3-----3-----3-----3--| 2x
D|------------------------|------------------------|-----1-----1-----1-----1|-----0-----0-----0-----0|
A|------------------------|------------------------|------------------------|------------------------|
E|------------------------|------------------------|------------------------|------------------------|

   Gm                       Bb                       Eb                       F  
E|-3-----3-----3-----3----|-1-----1-----1-----1----|------------------------|------------------------|
B|---3-----3-----3-----3--|---3-----3-----3-----3--|-4-----4-----4-----4----|-1-----1-----1-----1----|
G|-----0-----0-----0-----0|-----3-----3-----3-----3|---3-----3-----3-----3--|---2-----2-----2-----2--|
D|------------------------|------------------------|-----1-----1-----1-----1|-----3-----3-----3-----3|
A|------------------------|------------------------|------------------------|------------------------|
E|------------------------|------------------------|------------------------|------------------------|

   Gm                       Bb                       Eb                       
E|-3-----3-----3-----3----|-1-----1-----1-----1----|------------------------|-3-------3--------------|
B|---3-----3-----3-----3--|---3-----3-----3-----3--|-4-----4-----4-----4----|---3---3---3------------|
G|-----0-----0-----0-----0|-----3-----3-----3-----3|---3-----3-----3-----3--|-----3-------3----------|
D|------------------------|------------------------|-----1-----1-----1-----1|---------------0--------|
A|------------------------|------------------------|------------------------|------------------------|
E|------------------------|------------------------|------------------------|-----------------3------|
                                                                            (Slow down to Verse-Tempo)
                                                                            (Back to normal rythm)
Otros videos de esta canción
    10 exhibiciones
      • ½ Tono
      • Am
      • Bbm
      • Bm
      • Cm
      • C#m
      • Dm
      • Ebm
      • Em
      • Fm
      • F#m
      • Gm
      • G#m
    • Agregar a la lista

    Afinación de cifrado

    Afinador online

      OK