Cifra Club

Yo quiero una mujer

Los Amigos Invisibles

Cifrado: Principal (guitarra y guitarra eléctrica)
Acompaña nuestras novedades de Cifra Club en español.
¡Sigue nuestro perfil en Instagram!
tono: D
ACORDES:  mi sost       |   si sost   |  si7 sost
E|----7------|-------7-----|----7----|
B|----7------|-------9-----|----9----|
G|----9------|-------9-----|----7----|
D|----9------|-------8-----|----8----|
A|----8------|-------7-----|----7----|
E|----7------|-------7-----|----7----|

INTRO:
     E  sost     |   B  sost
E|-----------------|----------------|
B|-----------------|----------------|
G|-----------------|----------------|
D|------12---------|-----------8----|
A|---12------------|-------7--------|
E|--12-------------1-----7----------|
ARDG LO:

E|---------------------------------|
B|---------------------------------|
G|---------------------------------|
D|---------------------------------|
A|--12-----------13-12-11-12-------|
E|----12-11-10-9-------------------|

 PARTE DEL TECAD O EN GUITARRA: se repite 2 veces
          |mi sost             |si sost| si7 sost|
E|----------|--------------------|-------|---------|
B|----------|--------------------|-------|---------|
G|----------|--------------------|-------|---------|
D|----------|-----------------12-| 11-----|---------|
A|-5-8-7-10-| 12-10-10-13-12-10---|-------|---------|
E|----------|--------------------|-------| 14-14-14-|

E|-------------------------------------------------|
B|-------------------------------------------------|
G|-------------------------------------------------|
D|------------11-12-------12-11-9------------------|
A|-12-13-10-12------12-10--------------------------|
E|-------------------------------------------------|

D QUINTO:
                                 | E  sost        |
E|---------------------------------|----------------|
B|-7-6-7---------------------------|----------------|
G|------5-4-5----------------------|----------------|
D|-----------4-2-4-----------------|--------12-11-12|
A|----------------5-4-5-7-5-7-8-10-| 12-12-10--------|
E|---------------------------------|----------------|
ESTA PARTE VA RAPIC :
B7  sost                                                    |
E|------------------------------------------------------------|
B|------------------------------------------------------------|
G|------------------------------------------------------------|
D|------------------12-12-12-11-11-11-9-9-9-8-8-8-6-6-6-8-8-8-|
A|-12-12-12-10-10-10------------------------------------------|
E|------------------------------------------------------------|

E  sost
E|-----------------------------------------------|
B|-----------------------------------------------|
G|-----------------------------------------------|
D|-----------------------------------------------|
A|-9-9-9-12-12-11-8-9----------------------------|
E|-----------------------------------------------|

OUTRO:
E|--7-7-8-7-------------|
B|-7-------6-7----------|
G|----------------------|
D|----------------------|
A|----------------------|
E|----------------------|


 E  sost (INTRO)                        B  sost(intro)
yo quiero una mujer que me quiera de verdad
                                         E  sost(intro)
que me pueda comprender y que me quiera mimar

(verso)
               E  sost                 B  sost
yo quiero una mujer que me quiera de verdad
                   B7  sost               E  sost
que me pueda comprender y que me quiera mimar

                                       B  sost
si existe esa mujer que me quiera de verdad
                 B7  sost                  E  sost(ligera pausa)
yo le voy a prometer que yo la voy a encontrar

CORO:
        E  sost
que no sea ni muy alta
        B  sost
ni muy baja ni muy gorda
        B7  sost               E  sost( rapidamente después el arreglo)
ni muy flaca y que me quiera mimar

        E  sost
que no sea ni muy fea
        B  sost
ni bonita ni muy blanca
        B7  sost             E  sost (arreglo)
ni negrita y que me quiera mimar


Parte del teclado(si no quieres tocar esta parte da dos vueltas del verso)

 VERSO:
                  E  sost                B  sost
Yo quiero una  mujer que me quiera de verdad
                     B7  sost              E  sost
Que me pueda comprender y que me quiera mimar
                   B  sost                 B  sost
Si encuentro esa mujer que me quiera de verdad
                 B7 sost                 E  sost
Yo le voy a prometer que no se arrepentirá

CORO:
          E  sost
y que no sea ni chiquita
          B  sost
ni grandota ni muy tonta
         B7  sost              E  sost(arreglo)
ni muy loca y que me quiera mimar
        E  sost
que no sea ni muy seria
      B  sost
ni reilona ni siflida
        B7  sost               requinto
ni muy mona y que me quiera mimar
 (si no lo quieres tocar da una vuelta del verso)


CORO:
        E  sost
que no sea ni chiquita
       B  sost
ni grandota ni muy tonta
        B7  sost               E  sost
ni muy loca y que me quiera mimar
        E  sost
que no sea ni muy seria
         B  sost
ni reilona ni siflida
         B7  sost              outro
ni muy mona y que me quiera mimar
Compositor não encontrado.
    • ½ Tono
    • A
    • Bb
    • B
    • C
    • Db
    • D
    • Eb
    • E
    • F
    • F#
    • G
    • Ab
  • Agregar a la lista

    0 comentarios

    Ver todos los comentarios

    ¿Lograste tocar?

    0 Tocaron 0 Aún no

    ¡Graba un video tocando Yo quiero una mujer y envíanoslo!

    00:00 / 00:00
    Outros vídeos desta música
    Repetir Calidad Automático
    Outros vídeos desta música
    00:00 / 00:00
    Automático
    OK