Cifra Club

Days Of No Trust

Magnum

Cifrado: Principal (guitarra y guitarra eléctrica)
tono: E
  

                       (transcribed in a hurry by mEeK)




E||----------------------|----------------------|----------------------|
B||-----------------2----|----------------------|----------------------|
G||--2----2----4---------|--4----2--------------|----------------------|
D||--2----2--------------|-------2----2---------|------------2---------|
A||--0-------------------|------------2----2----|------------2----4----|
E||----------------------|------------0----0----|--3----4--------------|


        3x                                                                     
--------||----------------------|----------------------|----------------------|
--------||----------------------|----------------------|----------------------|
--2----*||----------------------|----------------------|--6----2----2----2----|
--2----*||--2----2----2----2----|--2----2----2----2----|--6----2----2----2----|
--0-----||--2----2----2----2----|--2----2----2----2----|--4----0----0----0----|
--------||--0----0----0----0----|--0----0----0----0----|----------------------|

                                                             
Compositor não encontrado.
21 vistas
    • ½ Tono
    • A
    • Bb
    • B
    • C
    • Db
    • D
    • Eb
    • E
    • F
    • F#
    • G
    • Ab
  • Agregar a la lista

    0 comentarios

    Ver todos los comentarios

    ¿Lograste tocar?

    0 Tocaron 0 Aún no

    ¡Graba un video tocando Days Of No Trust y envíanoslo!

    00:00 / 00:00
    Outros vídeos desta música
    Repetir Calidad Automático
    Outros vídeos desta música
    00:00 / 00:00
    Automático
    OK