Cifra Club

La canción del desvelado

Manuel Garcia

Cifrado: Principal (guitarra y guitarra eléctrica)
tono: Bm

Intro:
E|----2----0--------------0-------------0---|
B|-------------3--3--3---3---3--3--3---3----|
G|---4----2-----0--0--0-0-----0--0--0-0-----|
D|------------0--0--0--0----0--0--0--0------|
A|--2--2-0--0-------------------------------|
E|-----------3-------------3----------------|

[Arpegio]
E|----2----0--------------0-|
B|-------------3--3--3---3--|
G|---4----2-----0--0--0-0---|
D|------------0--0--0--0----|
A|--2--2-0--0---------------|
E|-----------3--------------|

[Arpegio2]
E|----2----0--------------0-|
B|----3----2---3--3--3---3--|
G|---4----2-----0--0--0-0---|
D|------------0--0--0--0----|
A|--2--2-0--0---------------|
E|-----------3--------------|

[Arpegio]
Algo que siempre ha nacido
[Arpegio]
detrás de la cordillera,
Bm
aunque no haya luna llena,
G
siempre se queda en nosotros;
A
y eso que a mi me desvela,
Bm
es como entrar en tus ojos,
G
es como si fuera el oro
A
de todas las cosas bellas,
Bm
como la fuerza de un potro
G                             A
que se encabrita en la selva.
Bm

[Arpegio2]
Algo que nos toca el hombro
[Arpegio2]
diciendo el tiempo que queda.
Bm
Todas las bestias salvajes,
G
serpientes de lunas viejas,
A
pasan y toman asiento,
Bm
pero eso no me desvela,
G
sino la luz que despierta,
A
en las mañanas que vengan
Bm                Bm
otro camino de luz.
Bm

[Arpegio2]
Algo que siempre ha nacido
[Arpegio2]
detrás de la cordillera
Bm
y que no es como una esfera
Bm
más bien parece una hembra
G
que esta pariendo una estrella.
A
Le duelen todas las puntas
Bm
sangra con luz de la tierra;
G
el árbol llena su copa
A
del canto de aves viajeras,
Bm
pajaros de otro planeta,
G
que nadie ha visto de cerca.
A
La ciudad en su horizonte
Bm                      Bm
sabe su nombre que vuela...
Bm - G - A - Bm (hasta el final)
Compositor no encontrado.
12 vistas
    • ½ Tono
    • Am
    • Bbm
    • Bm
    • Cm
    • C#m
    • Dm
    • Ebm
    • Em
    • Fm
    • F#m
    • Gm
    • G#m
  • Agregar a la lista

    0 comentarios

    Ver todos los comentarios

    ¿Lograste tocar?

    0 Tocaron 0 Aún no

    ¡Graba un video tocando La canción del desvelado y envíanoslo!

    00:00 / 00:00
    Otros videos de esta canción
    Repetir Calidad Automático
    Otros videos de esta canción
    00:00 / 00:00
    Automático
    OK