Cifra Club

House Of Blend

Millencolin

Cifrado: Principal (guitarra y guitarra eléctrica)
Selo Cifra Club: esta cifra foi revisada para atender aos critérios oficiais da nossa Equipe de Qualidade.
tono: F
Intro (fill 1):

|-|--------------------------------|
|-|--------------------------------|
|-|--------------------------------| Repeat 8 Times
|-|-------------------3--2---------|
|-|---3--5-----3--5----------5--3--|
|-|--------------------------------|


Verse:

    D                    F                 C                 D
|-|--------------------------------------------------------------|
|-|--------------------------------------------------------------|
|-|--7----7----7---7--7---10--10--10--10--------------------7----|
|-|--7----7----7---7--7---10--10--10--10--10--10--10--10----7----|
|-|--5----5----5---5--5---8---8---8---8---10--10--10--10----5----|
|-|---------------------------------------8---8---8---8----------|
   I haven't much to say today 'cause the nowhere albums's on


(when he starts singing "the good times the bad times seem to be 
  the same" guitar 2 plays fill 1, the intro)


     D  (ska)                            F             C
|-|--------------------------------------------------------------|
|-|--------------------------------------------------------------|
|-|--7------7-------------------7--7------10-10-10-10------------|
|-|--7------7-------------------7--7------10-10-10-10-10--10--10-|
|-|--5------5-------------------5--5------8--8--8--8--10--10--10-|
|-|---------------------------------------------------8---8---8--|
    all the talk about the one day plan hasn't got to me


Chorus:

     F                   C            D       
|-|------------------------------------------
|-|------------------------------------------
|-|--10-10-10--10-10-10---------------7-7-7--
|-|--10-10-10--10-10-10--10-10-10-10--7-7-7--
|-|--8--8--8---8--8--8---10-10-10-10--5-5-5--
|-|----------------------8--8--8--8----------
    anything...I can do anything  I  want to


    C                 D                        F
---------------------------------------------------------|
---------------------------------------------------------|
----------------------7---7---7---7---7---7----10-10-10--|
----10--10---10--10---7---7---7---7---7---7----10-10-10--|
----10--10---10--10---5---5---5---5---5---5----8--8--8---|
----8---8----8---8---------------------------------------|
    in the house of blend is where I find my energy


(repeat intro riff, and then verse 2)

Bridge:

     F (hold)             C
|-|---------------------------------------------|
|-|---------------------------------------------|
|-|--10-----------------------------------------|
|-|--10-------------------10---10--10--10--10---|
|-|--8--------------------10---10--10--10--10---|
|-|-----------------------8----8---8---8---8----|
    give me something to hate... (and so on, same chords)
Otros videos de esta canción
    21 exhibiciones
      • ½ Tono
      • A
      • Bb
      • B
      • C
      • Db
      • D
      • Eb
      • E
      • F
      • F#
      • G
      • Ab
    • Agregar a la lista

    Afinação da cifra

    Afinador online

      Ops (: Contenido disponible solo en portugués.
      OK