Cifra Club

City Of Delusion

Muse

Tab de bajo: Versão 3
Album: Balck Holes & Revelations



Listen a few times to the song before playing it..... specially the end Chorus part....
It's not a very dificult song... try to memorise all.... that way it will be easier to
than playng it with the tab!!

Have Fun!!! (And Rate It):P


Guitar Intro

Verse 1

G||----------------|----------------|----------------|----------------|
D||----3---2--5-2--|----3---2--5-2--|----3---2--5-2--|----3---2--5-2--|
A||--5---4---------|--5---4---------|--5---4---------|--5---4---------|
E||----------------|----------------|----------------|----------------|

G||--------0--3-0--|----2-0-3--5-3--|----2---0--3-0--|----------------|
D||----3-2---------|--3-------------|--3---2---------|----3---2--5-2--|
A||--5-------------|----------------|----------------|--5---4---------|
E||----------------|----------------|----------------|----------------|

G||----------------|----------------|----------------|----------------|
D||----2---3--5-3--|----2---3--5-3--|----2---2--3-2--|----------------|
A||--0---1---------|--0---1---------|--0-------------|----5-----------|
E||----------------|----------------|------3---------|--1---0--3-6-5--|


Pre-Chorus

G||----------------|----------------|----------------|----------------|
D||----3---2--5-2--|----3---2--5-2--|----3---2--5-2--|----------------|
A||--5---4---------|--5---4---------|--5---4---------|--5-5-5---------|
E||----------------|----------------|----------------|----------------|


Chorus 1

G||-----------|-----------|-----------|
D||-----------|-----------|-----------|
A||--8-8-8----|--4-4-4----|--5-5-5----|
E||-----------|-----------|-----------|

G||-----------|-----------|-----------|
D||-----------|--5-5-5----|--3-3-3----|
A||-----------|-----------|-----------|
E||--5-5-5----|-----------|-----------|

G||-----------|-----------|-----------|
D||--2-2-2----|-----------|-----------|
A||-----------|--5-5-5----|-----------|
E||-----------|-----------|--5-5-5----|


G||---------------|---------------|---------------|
D||--5-5-5---5-5--|--3-3-3---3-3--|---------------|
A||---------------|---------------|--4-4-4---4-4--|
E||---------------|---------------|---------------|

G||---------------|---------------|---------------|
D||---------------|---------------|--5-5-5---5-5--|
A||--5-5-5---5-5--|---------------|---------------|
E||---------------|--5-5-5---5-5--|---------------|

G||---------------|---------------|---------------|
D||--3-3-3---3-3--|--2-2-2---2-2--|--0-0-0---0-0--|
A||---------------|---------------|---------------|
E||---------------|---------------|---------------|

End of Chorus

G||----------------|----------------|----------------|----------------|
D||----2---3--5-3--|----2---3--5-3--|----2---2--3-2--|----------------|
A||--0---1---------|--0---1---------|--0-------------|----5-----------|
E||----------------|----------------|------3---------|--1---0--3-6-5--|


Verse 2 (With The Ua Ua Effect)
                                                                       X2
G||----------------|----------------|----------------|----------------|
D||----3---2--5-2--|----3---2--5-2--|----3---2--5-2--|----3---2--5-2--|
A||--5---4---------|--5---4---------|--5---4---------|--5---4---------|
E||----------------|----------------|----------------|----------------|

G||--------0--3-0--|----2-0-3--5-3--|----2---0--3-0--|----------------|
D||----3-2---------|--3-------------|--3---2---------|----3---2--5-2--|
A||--5-------------|----------------|----------------|--5---4---------|
E||----------------|----------------|----------------|----------------|

G||----------------|----------------|----------------|----------------|
D||----2---3--5-3--|----2---3--5-3--|----2---2--3-2--|----------------|
A||--0---1---------|--0---1---------|--0-------------|----5-----------|
E||----------------|----------------|------3---------|--1---0--3-6-5--|

Pre-Chorus

G||----------------|----------------|----------------|----------------|
D||----3---2--5-2--|----3---2--5-2--|----3---2--5-2--|----------------|
A||--5---4---------|--5---4---------|--5---4---------|--5-5-5---------|
E||----------------|----------------|----------------|----------------|

Chorus 2

G||-----------|-----------|-----------|
D||-----------|-----------|-----------|
A||--8-8-8----|--4-4-4----|--5-5-5----|
E||-----------|-----------|-----------|

G||-----------|-----------|-----------|
D||-----------|--5-5-5----|--3-3-3----|
A||-----------|-----------|-----------|
E||--5-5-5----|-----------|-----------|

G||-----------|-----------|-----------|
D||--2-2-2----|-----------|-----------|
A||-----------|--5-5-5----|-----------|
E||-----------|-----------|--5-5-5----|


G||---------------|---------------|---------------|
D||--5-5-5---5-5--|--3-3-3---3-3--|---------------|
A||---------------|---------------|--4-4-4---4-4--|
E||---------------|---------------|---------------|

G||---------------|---------------|---------------|
D||---------------|---------------|--5-5-5---5-5--|
A||--5-5-5---5-5--|---------------|---------------|
E||---------------|--5-5-5---5-5--|---------------|

G||---------------|---------------|---------------|
D||--3-3-3---3-3--|--2-2-2---2-2--|--0-0-0---0-0--|
A||---------------|---------------|---------------|
E||---------------|---------------|---------------|


End of Chorus

G||----------------|----------------|----------------|----------------|
D||----2---3--5-3--|----2---3--5-3--|----2---2--3-2--|----------------|
A||--0---1---------|--0---1---------|--0-------------|----5-----------|
E||----------------|----------------|------3---------|--1---0--3-6-5--|


Guiar Solo


Intrumental PArt (Trumpet)

G||----------------|----------------|----------------|----------------|
D||----3---2--5-2--|----3---2--5-2--|----3---2--5-2--|----3---2--5-2--|
A||--5---4---------|--5---4---------|--5---4---------|--5---4---------|
E||----------------|----------------|----------------|----------------|

G||--------0--3-0--|----2-0-3--5-3--|----2---0--3-0--|----------------|
D||----3-2---------|--3-------------|--3---2---------|----3---2--5-2--|
A||--5-------------|----------------|----------------|--5---4---------|
E||----------------|----------------|----------------|----------------|

G||----------------|----------------|----------------|----------------|
D||----2---3--5-3--|----2---3--5-3--|----2---2--3-2--|----------------|
A||--0---1---------|--0---1---------|--0-------------|----5-----------|
E||----------------|----------------|------3---------|--1---0--3-6-5--|


Pre-Chorus

G||----------------|----------------|----------------|----------------|
D||----3---2--5-2--|----3---2--5-2--|----3---2--5-2--|----------------|
A||--5---4---------|--5---4---------|--5---4---------|--5-5-5---------|
E||----------------|----------------|----------------|----------------|

Chorus 3

G||-----------|-----------|-----------|
D||-----------|-----------|-----------|
A||--8-8-8----|--4-4-4----|--5-5-5----|
E||-----------|-----------|-----------|

G||-----------|-----------|-----------|
D||-----------|--5-5-5----|--3-3-3----|
A||-----------|-----------|-----------|
E||--5-5-5----|-----------|-----------|

G||-----------|-----------|-----------|
D||--2-2-2----|-----------|-----------|
A||-----------|--5-5-5----|-----------|
E||-----------|-----------|--5-5-5----|


G||---------------|---------------|---------------|
D||--5-5-5---5-5--|--3-3-3---3-3--|---------------|
A||---------------|---------------|--4-4-4---4-4--|
E||---------------|---------------|---------------|

G||---------------|---------------|---------------|
D||---------------|---------------|--5-5-5---5-5--|
A||--5-5-5---5-5--|---------------|---------------|
E||---------------|--5-5-5---5-5--|---------------|

G||---------------|---------------|---------------|
D||--3-3-3---3-3--|--2-2-2---2-2--|--0-0-0---0-0--|
A||---------------|---------------|---------------|
E||---------------|---------------|---------------|


End

G||----------------|----------------|----------------|----------------|
D||----2---3--5-3--|----2---3--5-3--|----2---2--3-2--|----------------|
A||--0---1---------|--0---1---------|--0-------------|----5-----------|
E||----------------|----------------|------3---------|--1---0--3-6-5--|


Tab by: Pedro Zappa
Composición de Matthew Bellamy

0 comentarios

Ver todos los comentarios

¿Lograste tocar?

0 Tocaron 0 Aún no

¡Graba un video tocando City Of Delusion y envíanoslo!

00:00 / 00:00
Outros vídeos desta música
Repetir Calidad Automático
Outros vídeos desta música
00:00 / 00:00
Automático
OK