Cifra Club

Save Me

My Darkest Days

Cifrado: Principal (guitarra y guitarra eléctrica)
tono: F#
(intro 2x)

      e ss e ss e ss e e            e e e e e e e e
D#||----------------------||         |----------------|
Bb||o--------------------o||         |----------------|
Gb||----------------------|| (x3)    |----------------|
C#||--0-00-0-00-0-00-3-5--||         |3-3-3-3-3-3-5-5-|
Ab||o-0-00-0-00-0-00-1-3-o||         |3-3-3-3-1-1-3-3-|
C#||--0-00-0-00-0-00------||         |3-3-3-3---------|
        **   **   **

(verse 1 - 2x)
just bass in this part
   q   q   q   e e              e e e e e e e e
||------------------||      |----------------|
||o----------------o||      |----------------|
||------------------|| (x3) |----------------|
||------------------||      |----------------|
||o------------1-3-o||      |--------1-1-3-3-|
||-0---0---0--------||      |3-3-3-3---------|
   *   *   *   * *          * * * * * * * *

(chorus 1)
    q  e  e  h     q  e  e  h
||----------------|---------------||
||o---------------|--------------o||
||------- 5-(5)---|---------------|| (x4)
||--0-(0)-5-(5)---|3-(3)-5-(5)----||
||o-0-(0)-3-(3)---|3-(3)-5-(5)---o||
||--0-(0)---------|3-(3)-5-(5)----||

(post-Chorus 1)
    q   q     q   e  q   q   e e e e
||------------------|-----------------||
||o-----------------|----------------o||
||------------------|--------3-3-5-5--|| (x2)
||--0---0-----0---0-|0---0---3-3-5-5--||
||o-0---0-----0---0-|0---0---1-1-3-3-o||
||--0---0-----0---0-|0---0------------||

(verse 2 - 2x)
just bass in this part
   q   q   q   e e              e e e e e e e e
||------------------||      |----------------|
||o----------------o||      |----------------|
||------------------|| (x3) |----------------|
||------------------||      |----------------|
||o------------1-3-o||      |--------1-1-3-3-|
||-0---0---0--------||      |3-3-3-3---------|
   *   *   *   * *          * * * * * * * *

(chorus 2)
    q  e  e  h     q  e  e  h
||----------------|---------------||
||o---------------|--------------o||
||------- 5-(5)---|---------------|| (x4)
||--0-(0)-5-(5)---|3-(3)-5-(5)----||
||o-0-(0)-3-(3)---|3-(3)-5-(5)---o||
||--0-(0)---------|3-(3)-5-(5)----||

(post-Chorus 2)
    q   q     q   e  q   q   q   q
||------------------|-----------------||
||o-----------------|----------------o||
||------------------|--------3---5----|| (x4)
||--0---0-----0---0-|0---0---3---5----|| (NOTE: The difference in the second measure
||o-0---0-----0---0-|0---0---1---3---o||        compared with the other Post-Choruses)
||--0---0-----0---0-|0---0------------||

(chorus 3)
    q  e  e  h     q  e  e  h
||----------------|---------------||
||o---------------|--------------o||
||------- 5-(5)---|---------------|| (x4)
||--0-(0)-5-(5)---|3-(3)-5-(5)----||
||o-0-(0)-3-(3)---|3-(3)-5-(5)---o||
||--0-(0)---------|3-(3)-5-(5)----||

(post-Chorus 3)
    q   q     q   e  q   q   e e e e
||------------------|-----------------||
||o-----------------|----------------o||
||------------------|--------3-3-5-5--|| (x4)
||--0---0-----0---0-|0---0---3-3-5-5--||
||o-0---0-----0---0-|0---0---1-1-3-3-o||
||--0---0-----0---0-|0---0------------||

(end)
 e
|-----------------|
|-----------------|
|-----------------|
|0----------------|
|0----------------|
|0----------------|
Composición de Chad Kroeger / Joey Moi / Matt Walst
Colaboración y revisión:
  • Lizandra
15 vistas
    • ½ Tono
    • A
    • Bb
    • B
    • C
    • Db
    • D
    • Eb
    • E
    • F
    • F#
    • G
    • Ab
  • Agregar a la lista

    0 comentarios

    Ver todos los comentarios
    00:00 / 00:00
    Outros vídeos desta música
    Repetir Calidad Automático
    Outros vídeos desta música
    00:00 / 00:00
    Automático
    OK