Cifra Club

I Dont Want To Miss A Thing

New Found Glory

Tab de bajo: Principal
Tabbed by: Adrián

Listen to the song for the rithims.


Intro:
|-------------------------|
|-------------------------|  x2
|-5--4----2---------------|  
|---------------3--2----0-|



|------------------|
|------------------|
|-----------000000-|
|-2---3------------|

Chorus:
|-----------------------------------------------------|
|-----------------------------------------------------|
|-55-44-----------------------------------------------|
|---------000-2-3333-------------0000000000-2-5555----|



Verse:
|-------------------------------|
|-------------------------------|  
|-55--44---2222-----------------|  
|-----------------33--22---0000-|


|------------------------------|
|------------------------------|
|-55--44---2222----------------|
|------------------2222-3333---|


CHORUS

Bridge:
|-------------------------------------|
|-------------------------------------|  x2
|-33333333-22222222-11111111-00000000-|
|-------------------------------------|

|------------------|
|------------------|
|------------------|
|------------------|
|-0000000000000000-|
|------------------|


CHORUS

(I am not sure about the whole end)


but it ends on:
|---|
|---|
|-5-|
|---|
00:00 / 00:00
Otros videos de esta canción
Repetir
Otros videos de esta canción
Composición de Diane Warren
38 vistas

0 comentarios

Ver todos los comentarios

¿Lograste tocar?

0 Tocaron 0 Aún no

¡Graba un video tocando I Dont Want To Miss A Thing y envíanoslo!

00:00 / 00:00
OK