Cifra Club

Aprenda

Beginning Of Something Wonderful

Orange and Lemons

Tab de bajo: Principal
Warning: smile before plating it!!!!! (hehehe para masaya)

Intro: B-A-Gm-F#m

G|--------------|----------|-----------|-----------|
D|--------------|----------|-----------|-----------|
A|--------6—6p5-|-----4--3-|----2—2p1--|-----------|
E|----7---------|-5--------|-3---------|-2---3--4--|
                                  ...............play it (5 xs)

G|--------------|-----------|-----------|----------|
D|--------------|-----------|-----------|----------|
A|--------6—6p5-|-----4--3--|----2—2p1--|----------|
E|----7---------|-5---------|-3---------|-2---2----|

Verse:

G|--------------|----------|-----------|-----------|
D|--------------|----------|-----------|-----------|
A|--------6—6h5-|-----4--3-|----2—2h1--|-----------|
E|----7---------|-5--------|-3---------|-2---3--4--|

Refrain:

G|-------------|------------|------------|-------------|
D|-------------|------------|------------|-------------|
A|-------------|------------|------------|-------------|
E|--5-5-5-5-5--|-7-7-7-7-7--|-1-1-1-1-1--|-3-3-3-3-3---|

Chorus:

G|--------------|----------|-----------|-----------|
D|--------------|----------|-----------|-----------|
A|--------6—6h5-|-----4--3-|----2—2h1--|-----------|
E|----7---------|-5--------|-3---------|-2---3--4--|

Bridge:

G|----------------|-------------|------------|-------------|
D|----------------|-------------|------------|-------------|
A|---7-7-7-7-7p6--|-5-5-5-5-5p4-|-3-3-3-3-3--|-2-2-2-2-2---|
E|----------------|-------------|------------|-------------|
play it siguro mga 5xs

then:
G|--------------|-----------|------------|-------------|
D|--------------|-----------|------------|-------------|
A|---7-7-7-7-7--|-5-5-5-5-5-|-3-3-3-3-3--|-2-1---3-4---|
E|--------------|-----------|------------|-------------|

instruction:
play intro,verse,refrain,chorus,intro,refrain,chorus,bridge,intro,refrain,chorus,bridge,
tapos the end na basta kayo nalang bahala
anyway this is my first time kaya sorry kung maraming mali
just e-mail me kung may mali nga...*
6 reproducciones

0 comentarios

Ver todos os comentários

¿Conseguiste tocar?

0 Tocaram 0 Ainda não

Grave um vídeo tocando Beginning Of Something Wonderful e nos envie!

00:00 / 00:00
outros vídeos desta música
repetir qualidade Automático
Outros vídeos desta música
00:00 / 00:00
Automático
OK