Cifra Club

Maniwala Ka Sana

Parokya Ni Edgar

Tab de bajo: Principal
maniwala ka sana


intro, verses 1, 2, and 3
--------------------------------|
--------------------------------|
-3-------0----------------------|
---------------1--------3-------|
pre chorus 1,2,and 3
--------------------------------|
--------------------------------|
-0------------------------3-----|
---------3--------1-------------|
chorus
--------------------------------|
--------------------------------|
-3-----------------0------------|
----------3-----------------1---|

feel ko mababa 2, taas nyo lang kng gus2 nyo
00:00 / 00:00
Otros videos de esta canción
Repetir
Otros videos de esta canción
Compositor no encontrado.
15 vistas

0 comentarios

Ver todos los comentarios

¿Lograste tocar?

0 Tocaron 0 Aún no

¡Graba un video tocando Maniwala Ka Sana y envíanoslo!

00:00 / 00:00
OK