Cifra Club

Te Lo Juro Por Madonna

Plastilina Mosh

Cifrado: Principal (guitarra y guitarra eléctrica)
Selo Cifra Club: esta cifra foi revisada para atender aos critérios oficiais da nossa Equipe de Qualidade.
tono: Em
E|---------------------5-8-|
B|-----------------5-8-----|
G|-------------5-7---------|
D|---------5-7-------------|
A|-----5-7-----------------|
E|-5-8---------------------|


[Intro/riff principal/coros]

    A             C5      D       B
E|--------------------------------------|
B|---------------------8x8x8x8-7x7x7x7--|
G|----7p5-7p5-----x5| :--7x7x7x7-7x7x7x7--|
D|--7---------7-7-x5| :-------------------|
A|--0-------------x3| :-------------------|
E|--------------------------------------|

   A             C5     D       B
E|-------------------------------------5--|
B|---------------------8x8x8x8-7x7x----5--|
G|----7p5-7p5-----x5| :--7x7x7x7-7x7x-5h7---|
D|--7---------7-7-x5| :---------------------|
A|--0-------------x3| :---------------------|
E|----------------------------------------|


[En ciertas partes del verso]

E|---xxx---|
B|---xxx---|
G|---xxx---|
D|---xxx---|
A|---xxx---|
E|---xxx---|


[Bajo/verso]

G|---------|
D|-7p5-7p5-|
A|---------|
E|---------|

          A                B                D                A
G|----------------------------------------------------------------------|
D|----------------------------------------------------------------------|
A|----------------------------------------------------------------------|
E|--5-5-5-5-5-5-5-5-1717171717171717-1010101010101010-1515151515151515--|


Saludos desde Costa Rica!

- si hombre esta bueno -

Televisión de cable, clima artificial
Teléfono móvil y una master card
Noticiero de las 8:00, selección nacional
Playstation 2, realidad virtual

Te lo juro por Madonna -si hombre esta bueno-

6: 00 de la mañana todo es igual
El horóscopo se aleja de la realidad
Coca-cola y Marlboro para despertar
Y después al aeropuerto para despegar

Te lo juro por Madonna -si hombre esta bueno-

Y me duermo de dí y despierto de noche
Una tarde en Acapulco y un beso en tu coche... Yeah!

Te lo juro por Madonna -si hombre esta bueno-



************************************

| x  Dead note
| h  Hammer-on
| p  Pull-off
Otros videos de esta canción
    17 exhibiciones
      • ½ Tono
      • Am
      • Bbm
      • Bm
      • Cm
      • C#m
      • Dm
      • Ebm
      • Em
      • Fm
      • F#m
      • Gm
      • G#m
    • Agregar a la lista

    Afinación de cifrado

    Afinador online

      OK