Cifra Club

Aprenda

Snoop Dog Baby

Reel Big Fish

Tablatura: Principal (guitarra)
Tom: G
Key: 
    >>: Let Ring
    p:Pull-off
    h:Hammer-on

By: Mike 

Intro + Verse: Play around with these chords if you want!
(The chord in brackets is the chord you have to slide to for each chord)
e|----------------|
B|----------------|
G|---------(4)/5--|
D|--(7)\5--(4)/5--|
A|--(7)\5--(2)/3--|
E|--(5)\3---------|

Chorus + SubChorus (The Bit after the chorus)
e|-------------------|-------------------|-------------------7>>-7-8-7-----|
B|-------------------|-------------------|-------------------8>>--h-p--8---|
G|----------5-5-5-5--|--555-555-555-555--|-7---7----9---9----7>>---------7-|
D|--5-5-5-5-5-5-5-5--|--555-555-555-555--|---7---7----9---9--5>>-----------|
A|--5-5-5-5-3-3-3-3--|--323-323-323-323--|-5--------7----------------------|
E|--5-5-5-5----------|-------------------|---------------------------------|

SubChorus (Continued)
e|----------------7>>-------|-----------------|
B|----------------8>>-------|-----------------|
G|-5---5----7---7-7>>-------|--5>-5-4>-4-2>>--|
D|---5---5----7---5>>-------|--5>-5-4>-4-2>>--|
A|-3--------5---------------|--3>-3-2>-2-0>>--|
E|--------------------------|-----------------|

Check this tab out. I have been waiting for some to tab it up for ages so
I sat down and worked the damn thing out. This is my second tab. Please rate
it, THANX!
===============================================================================
Compositor Reel Big Fish
11 reproducciones
    • ½ Tom
    • A
    • Bb
    • B
    • C
    • Db
    • D
    • Eb
    • E
    • F
    • F#
    • G
    • Ab
  • Adicionar à lista

    0 comentarios

    Mostrar mais comentários

    ¿Conseguiste tocar?

    0 Tocaron 0 Ainda não

    Grave um vídeo tocando Snoop Dog Baby e mande pra gente!

    00:00 / 00:00
    outros vídeos desta música
    repetir qualidade Automático
    Outros vídeos desta música
    00:00 / 00:00
    Automático
    OK