Cifra Club

Cars And Calories

Saves The Day

Cifrado: Versão 2 (guitarra y guitarra eléctrica)
Selo Cifra Club: esta cifra foi revisada para atender aos critérios oficiais da nossa Equipe de Qualidade.
tono: Am
Intro
E|---------3-3-3-3-3-3-3-3-3-3-3-3-5-5-5-5-3-3-3-3-5-5-5-5-------------1------|
B|-5-5-5-5-5-5-5-5-5-5-5-5-5-5-5-5-5-5-5-5-3-3-3-3-5-5-5-5-------------1------|
G|-5-5-5-5-5-5-5-5-5-5-5-5-5-5-5-5-5-5-5-5-4-4-4-4-5-5-5-5-------------2------|
D|-4-4-4-4-3-3-3-3-5-5-5-5-5-5-5-5-7-7-7-7-5-5-5-5-7-7-7-7-------------3------|
A|-3-3-3-3-3-3-3-3-3-3-3-3-3-3-3-3-7-7-7-7-5-5-5-5-7-7-7-7-------------3------|
E|---------------------------------5-5-5-5-3-3-3-3-5-5-5-5-------------1------|

Verse                                      
E|-5-5-5-3-1-1-1-1-5-5-5---1-1-1-1-5-5-5-3-1-1-1-1-5-5-5-7-1------------------|
B|-5-5-5-3-1-1-1-1-5-5-5---1-1-1-1-5-5-5-3-1-1-1-1-5-5-5-7-1----------5-------|
G|-5-5-5-4-2-2-2-2-5-5-5---1-1-1-1-5-5-5-4-2-2-2-2-5-5-5-7-2----------5-------|
D|-7-7-7-5-3-3-3-3-7-7-7---3-3-3-3-7-7-7-5-3-3-3-3-7-7-7-9-3----------4-------|
A|-7-7-7-5-3-3-3-3-7-7-7---3-3-3-3-7-7-7-5-3-3-3-3-7-7-7-9-3----------3-------|
E|-5-5-5-3-1-1-1-1-5-5-5-0-1-1-1-1-5-5-5-3-1-1-1-1-5-5-5-7-1------------------|

Rythym Guitar in Chorus                                    
E|-0-0-0-0--0-----------------------------------------------------------------|
B|-1-3-1-1--1-----------------------------------------------------------------|
G|-2-2-2-0--2-----------------------------------------------------------------|
D|-2-2-2-0--3-----------------------------------------------------------------|
A|-0-0-0-0--------------------------------------------------------------------|
E|----------------------------------------------------------------------------|

Lead Guitar in Chorus
E|-------0------------------0-------------------------------------------------|
B|-----3---1-3-0-1-------1----1------1-3-3-5-3-5------------------------------|
G|---------------------2---2----2---2--4-4-5-4-5------------------------------|
D|---2---------------2------------3----5-5-5-5-5------------------------------|
A|-3---------------0----------------------------------------------------------|
E|----------------------------------------------------------------------------|
Otros videos de esta canción
    0 exhibiciones
      • ½ Tono
      • Am
      • Bbm
      • Bm
      • Cm
      • C#m
      • Dm
      • Ebm
      • Em
      • Fm
      • F#m
      • Gm
      • G#m
    • Agregar a la lista

    Afinação da cifra

    Afinador online

      Ops (: Contenido disponible solo en portugués.
      OK