Cifra Club

This Fear Of Gods

Simple Minds

Tab de bajo: Principal
Main Riff 

G|-----------------------------------------------|
D|---------11-h9-h11-----------------------------| Repeat until this fear..
A|-------------------9-11-9-11-------------------|
E|---9-9-----------------------------------------|

Chorus type bit... this fear of gods.....

G|------------------------------------------------|
D|---------9---------9-h11------------------------|
A|------------------------------------------------|
E|---9-9--------9-9-------------------------------|
00:00 / 00:00
Otros videos de esta canción
Repetir
Otros videos de esta canción
Composición de Jim Kerr / Simple Minds
Colaboración y revisión:
  • Vania santo
39 vistas

0 comentarios

Ver todos los comentarios

¿Lograste tocar?

0 Tocaron 0 Aún no

¡Graba un video tocando This Fear Of Gods y envíanoslo!

00:00 / 00:00
OK