Cifra Club

Temple Of Love

The Sisters Of Mercy

Cifrado: Principal (guitarra y guitarra eléctrica)
Selo Cifra Club: esta cifra foi revisada para atender aos critérios oficiais da nossa Equipe de Qualidade.
tono: D
#

Date: Mon, 12 Feb 96 13:52 GMT
From: * (Peter Croft)

From:   12" single/Some Girls Wander ...

Transcribed by: P Croft (*)

Comments
~~~~~~~~
This is a variation on the tab submitted by John Mc Donagh (attached
below).   It's basically the same musically, but played as with
barre chords rather than open; I first worked it out with barres, and also
find it easier in this position.


   E                D                Am
||----------------|-----------------|--------------------------------------|
||----------------|-----------------|--------------------------------------|
||---------9-9----|---------7-7-----|--------------------------------------|
||-----9-9-----9-9|-----7-7-----7-7-|--------7-7--9-9-10-10-9-9-7-7--------|
||-7-7------------|-5-5-------------|----7-7------------------------10-10--|
||----------------|-----------------|5-5-----------------------------------|

   E                D                Am
||----------------|-----------------|--------------------------------------|
||----------------|-----------------|--------------------------------------|
||---------9-9----|---------7-7-----|--------------------------------------|
||-----9-9-----9-9|-----7-7-----7-7-|--------7-7--9-9-10-10-9-9-7-7-9-9----|
||-7-7------------|-5-5-------------|----7-7-------------------------------|
||----------------|-----------------|5-5-----------------------------------|

------------ Orig. posting --
From: * (Nascent Virion.....)


This is the Lead:

   E                 D                  Am
||---------0-0-----|------------------|----------------------------------------|
||-----0-0-----0-0-|----------3-3-----|---------------0-0--1-1--0-0------------|
||-----------------|------2-2-----2-2-|----------2-2----------------2-2--0-0---|
||-2-2-------------|--0-0-------------|------2-2-------------------------------|
||-----------------|------------------|--0-0-----------------------------------|
||-----------------|------------------|----------------------------------------|

   E                 D                  Am
||---------0-0-----|------------------|----------------------------------------|
||-----0-0-----0-0-|----------3-3-----|---------------0-0--1-1--0-0-----0-0----|
||-----------------|------2-2-----2-2-|----------2-2----------------2-2--------|
||-2-2-------------|--0-0-------------|------2-2-------------------------------|
||-----------------|------------------|--0-0-----------------------------------|
||-----------------|------------------|----------------------------------------|

As far as I can figure the Chorus is:

E ////// D// C// D// Am//

And there are variations on the chords E       D Am
all through the song. (It goes into power chords at one stage).
Any corrections welcome.

~~~~~~~~~~~~~~~~~~~~~~~~~~~~~~~~~~~~~~~~~~~~~~~~~~~~~~~~~~~~~~~~~~~~~~~~~~~~~~~
-John Mc Donagh.                   ~~                         {Nascent Virion}
*              ~~                        "In Fear of Fear"
~~~~~~~~~~~~~~~~~~~~~~~~~~~~~~~~~~~~~~~~~~~~~~~~~~~~~~~~~~~~~~~~~~~~~~~~~~~~~~~
"Death makes angels of us all and gives us wings
 where we had shoulders as smooth as ravens' claws.."          --Jim Morrison
Otros videos de esta canción
    233 exhibiciones
      • ½ Tono
      • A
      • Bb
      • B
      • C
      • Db
      • D
      • Eb
      • E
      • F
      • F#
      • G
      • Ab
    • Agregar a la lista

    Afinação da cifra

    Afinador online

      Ops (: Contenido disponible solo en portugués.
      OK