Cifra Club

Nothings Gonna Stop Us Now

The Starting Line

Cifrado: Principal (guitarra y guitarra eléctrica)
Selo Cifra Club: esta cifra foi revisada para atender aos critérios oficiais da nossa Equipe de Qualidade.
tono: G
Standard Tuning 
Intro:  
0.00 ? 0.10 
(Guitar 1) 
E|----------------------------------------------------------------------------| 
B|----------------------------------------------------------------------------| 
G|----------------------------------------------------------------------------| 
D|----9~----------9~-----------9~------------9~-------------------------------| 
A|-7--------7h9--------7h9----------7h9---------------------------------------| 
E|----------------------------------------------------------------------------| 
(Guitar 2) play two times, on 2nd time pick slide 
E|----------------------------------------------------------------------------| 
B|----------------------------------------------------------------------------| 
G|----------------------------------------------------------------------------| 
D|9-9-9-9-9-9-9-9-------------------------------------------------------------| 
A|7-7-7-7-7-7-7-7--11-11-11-11-11-11-11-11?-7-7-7-7-7-7-7-7?-9-9-9-9-9-9-9-9--| 
E|-----------------9?-9?-9--9?-9?-9?-9?-9?--5-5-5-5-5-5-5-5?-7-7-7-7-7-7-7-7--| 
 
0.10 ? 0.19 
(Guitar 1) 
E|---------------------------|--------------------------| 
B|---------------------------|--------------------------| 
G|---------------------------|--------------------------| 
D|----------6?6s9-6--4-4h6---|----------6-6s11-6-4h6p4--| 
A|-7777-7-9----------------7-|-7777-7-9--------------77-| 
E|---------------------------|--------------------------| 
(Guitar 2) play once 
E|----------------------------------------------------------------------------| 
B|----------------------------------------------------------------------------| 
G|----------------------------------------------------------------------------| 
D|9-9-9-9-9-9-9-9------------------------------------------------------------9| 
A|7-7-7-7-7-7-7-7--11-11-11-11-11-11-11-11?-7-7-7-7-7-7-7-7?-9-9-9-9-9-9-9-9-7| 
E|-----------------9?-9?-9--9?-9?-9?-9?-9?--5-5-5-5-5-5-5-5?-7-7-7-7-7-7-7-7--| 
 
 
 
Verse 0.28 ? 0.36 
(Guitar 1) 
E|-------------------------------------------------------------| 
B|-------------------------------------------------------------| 
G|-------------------------------------------------------------| 
D|-------9-----9-|-------9----9--|-------9----9-|------9----9--| 
A|-7-7-7---7-7---|-7-7-7---7-7---|-7-7-7---7-7--|-7-7-7--7-7---| 
E|-------------------------------------------------------------| 
 
Pre Chorus 0.37 ? 0.56 
(Guitar 1) 
E|-------------------------------------------------------------| 
B|-------------------------------------------------------------| 
G|-------------------------------------------------------------| 
D|-------9-----9-|-------9----9--|-------9----9-|------9----9--| 
A|-7-7-7---7-7---|-7-7-7---7-7---|-7-7-7---7-7--|-7-7-7--7-7---| 
E|-------------------------------------------------------------| 
(Guitar 2)  
E|----------------------------------------------------------------------------| 
B|----------------------------------------------------------------------------| 
G|----------------------------------------------------------------------------| 
D|9-9-9-9-9-9-9-9-------------------------------------------------------------| 
A|7-7-7-7-7-7-7-7--11-11-11-11-11-11-11-11?-7-7-7-7-7-7-7-7?-9-9-9-9-9-9-9-9--| 
E|-----------------9?-9?-9--9?-9?-9?-9?-9?--5-5-5-5-5-5-5-5?-7-7-7-7-7-7-7-7--| 
   
|--------------------------------------------------------------------------------| 
|--------------------------------------------------------------------------------| 
|--------------------------------------------------------------------------------| 
|9-9-9-9-9-9-9-9--------------------------------------------7-7-7-7-7-7--6--4-4-4| 
|7-7-7-7-7-7-7-7--11-11-11-11-11-11-11-11?-7-7-7-7-7-7-7-7?-5-5-5-5-5-5--4--2-2-2| 
|-----------------9?-9?-9--9?-9?-9?-9?-9?--5-5-5-5-5-5-5-5?----------------------| 
 
Chorus {0.57 ? 1.16} 
Both Guitars 
E|---------------------------------------------------------------------------------| 
B|---------------------------------------------------------------------------------| 
G|---------------------------------------------------------------------------------| 
D|9-9-9-9-9-9-9-9------------------------------------------------------------7-7-7-| 
A|7-7-7-7-7-7-7-7--11-11-11-11-11-11-11-11?-7-7-7-7-7-7-7-7?-9-9-9-9-9-9-9-9?5-5-5-| 
E|-----------------9?-9?-9--9?-9?-9?-9?-9?--5-5-5-5-5-5-5-5?-7-7-7-7-7-7-7-7-------| 
Verse {1.25 ? 1.33} 
(Guitar 1) 
E|-------------------------------------------------------------| 
B|-------------------------------------------------------------| 
G|-------------------------------------------------------------| 
D|-------9-----9-|-------9----9--|-------9----9-|------9----9--| 
A|-7-7-7---7-7---|-7-7-7---7-7---|-7-7-7---7-7--|-7-7-7--7-7---| 
E|-------------------------------------------------------------| 
Pre Chorus {1.33 ? 1.53} 
(Guitar 1) 
E|-------------------------------------------------------------| 
B|-------------------------------------------------------------| 
G|-------------------------------------------------------------| 
D|-------9-----9-|-------9----9--|-------9----9-|------9----9--| 
A|-7-7-7---7-7---|-7-7-7---7-7---|-7-7-7---7-7--|-7-7-7--7-7---| 
E|-------------------------------------------------------------| 
(Guitar 2)  
E|----------------------------------------------------------------------------| 
B|----------------------------------------------------------------------------| 
G|----------------------------------------------------------------------------| 
D|9-9-9-9-9-9-9-9-------------------------------------------------------------| 
A|7-7-7-7-7-7-7-7--11-11-11-11-11-11-11-11?-7-7-7-7-7-7-7-7?-9-9-9-9-9-9-9-9--| 
E|-----------------9?-9?-9--9?-9?-9?-9?-9?--5-5-5-5-5-5-5-5?-7-7-7-7-7-7-7-7--| 
   
|--------------------------------------------------------------------------------| 
|--------------------------------------------------------------------------------| 
|--------------------------------------------------------------------------------| 
|9-9-9-9-9-9-9-9--------------------------------------------7-7-7-7-7-7--6--4-4-4| 
|7-7-7-7-7-7-7-7--11-11-11-11-11-11-11-11?-7-7-7-7-7-7-7-7?-5-5-5-5-5-5--4--2-2-2| 
|-----------------9?-9?-9--9?-9?-9?-9?-9?--5-5-5-5-5-5-5-5?----------------------| 
Chorus 1.54 ? 2.09 
Both Guitars 
E|---------------------------------------------------------------------------------| 
B|---------------------------------------------------------------------------------| 
G|---------------------------------------------------------------------------------| 
D|9-9-9-9-9-9-9-9------------------------------------------------------------7-7-7-| 
A|7-7-7-7-7-7-7-7--11-11-11-11-11-11-11-11?-7-7-7-7-7-7-7-7?-9-9-9-9-9-9-9-9?5-5-5-| 
E|-----------------9?-9?-9--9?-9?-9?-9?-9?--5-5-5-5-5-5-5-5?-7-7-7-7-7-7-7-7-------| 
 
Bridge 2.10 ? 2.30 
Guitar 1 (Comes in at 2.17)  
Play 4 Times  
E|------------------| 
B|------------------| 
G|------------------| 
D|-9-----9-----9----| 
A|---7-7---7-7---7--| 
E|------------------| 
 
Guitar 2 (2.10 ? 2.30) 
E|------------------------------------------------------------| 
B|------------------------------------------------------------| 
G|------------------------------------------------------------| 
D|9-9-9-9-9-9-9-9--9-9-9-9-9-9-9--6-6-6-6-6-6-6-6-6-6-6-6-6-6-| 
A|7-7-7-7-7-7-7-7--6-6-6-6-6-6-6--4-4-4-4-4-4-4-4-4-4-4-4-4-4-| 
E|------------------------------------------------------------| 
 
|------------------------------------------------------------| 
|------------------------------------------------------------| 
|------------------------------------------------------------| 
|9-9-9-9-9-9-9-9--9-9-9-9-9-9-9--6-6-6-6-6-6-6? 2-2-2-2-2-2-2| 
|7-7-7-7-7-7-7-7--6-6-6-6-6-6-6--4-4-4-4-4-4-4? 0-0-0-0-0-0-0| 
|------------------------------------------------------------| 
 
|---------------------| 
|---------------------| 
|---------------------| 
|---------------------| 
|--10-10-10-10---3-3--| 
|--8--8--8--8----1-1--| 
 
Solo {2.30 -2.45} 
E|----------10-----------------------------------------8-8h10?8-10-----15--13--| 
B|-10p8---------8----------11---10---------------------------------------------| 
G|------10--------10-----------------12--10------------------------------------| 
D|------------------12------12----12------------12^10--------------------------| 
A|-----------------------------------------------------------------------------| 
E|-----------------------------------------------------------------------------| 
 
 
|-------------------------------------| 
|-------------------------------------| 
|------------------------------5------| 
|------------------3-3-3--5--7---7-5--| 
|--12s3--3-3-3--5---------------------| 
|-------------------------------------| 
 
Outro (Closing Chorus) 2.46 ? End of Song 
(Guitar 1) Comes in at 3.04 
E|--------------------------------|--------------------------------| 
B|--------------------------------|--------------------------------| 
G|--------------------------------|--------------------------------| 
D|----------7?7s10-7--------------|-----------7-7s12-7-------------| 
A|---88-8-10---------10-10-10-8---|---88-8-10-----------10-10-10?8-| 
E|--------------------------------|--------------------------------| 
(Guitar 2) 
Play 4 Times 
E|--------------------------------------------------------------------|  
B|--------------------------------------------------------------------|  
G|--------------------------------------------------------------------|  
D|-10-10-10-10-10-10--------------------------------------------------|  
A|-8--8--8--8--8--8--12-12-12-12-12-12--6-6-6-6-6--10-10-10-10-10-10--|  
E|-------------------10-10-10-10-10-10--8-8-8-8-8--8--8--8--8--8--8---| 
Otros videos de esta canción
    1.237 exhibiciones
      • ½ Tono
      • A
      • Bb
      • B
      • C
      • Db
      • D
      • Eb
      • E
      • F
      • F#
      • G
      • Ab
    • Agregar a la lista

    Afinación de cifrado

    Afinador online

      OK