Cifra Club

Big Boy (feat. Keke Palmer, Ego Nwodim, Punkie Johnson & Cecily Strong)

SZA

Chords: Principal (acoustic and electric guitars)
tone: A
[Intro]

E|--------4-2-0--------4-2-222--------------------|
B|------2-------------2---------3-33333333333-----|
G|----2-------------2-----------------------------|
D|--4-----------4-4-------------------------------|
A|------------------------------------------------|
E|------------------------------------------------|

E|------2-2---------------------------------|
B|--------------0-2-------------------------|
G|------------2-----------------------------|
D|------------------------------------------|
A|------------------------------------------|
E|------------------------------------------|
00:00 / 00:00
Other videos of this song
Repeat
Other videos of this song
44 views
    • ½ Tone
    • A
    • Bb
    • B
    • C
    • Db
    • D
    • Eb
    • E
    • F
    • F#
    • G
    • Ab
  • Add to list

Afinação da cifra

Afinador online

    00:00 / 00:00
    OK