Cifra Club

I Gotta Know

Teenage Fanclub

Cifrado: Principal (guitarra y guitarra eléctrica)
tono: F# (con acordes en la forma de D) Capotraste en 4ª casa
#

# http://*~cbray/tfc/
#
# If you have any corrections or additions to this file, please email them
# to *
#


From: "M.J.A. Sullivan" (*)

I wacked a capo on 4th.

V1:
G Gsus4 G  C      G
I gotta    feeling

ie

3---3---3--3---------------|
0---1---0--1---------------|
0---0---0--0---------------|
0---0---0--2--2--0---------|
2---2---2--3--------2------|
3---3---3--------------3---|

              (get these notes in too)

etc...........

-----3------3---------|
-----0------0---------|
----------------------|
----------------------|
----------------------|
--3-----2------0------|


C:

Em7
I gotta know


V2:
                  C
------------------3--------------------|
------------------1--------------------|
------------------0--------------------|
---------0--2-----2-----2---0----------|
--2--3------------3-------------2------|
------------------------------------3--|

I  gotta          feeling


S'thing like that, just G, C s for verse and Em7 for chorus
(with a few runs).
00:00 / 00:00
Otros videos de esta canción
Repetir
Otros videos de esta canción
Composición de Raymond McGinley
14 vistas
    • ½ Tono
    • A
    • Bb
    • B
    • C
    • Db
    • D
    • Eb
    • E
    • F
    • F#
    • G
    • Ab
  • Agregar a la lista

    0 comentarios

    Ver todos los comentarios

    ¿Lograste tocar?

    0 Tocaron 0 Aún no

    ¡Graba un video tocando I Gotta Know y envíanoslo!

    00:00 / 00:00
    OK