Cifra Club

House of The Rising Sun

The Animals

Chords: Principal (acoustic and electric guitars)
tone: Am
[Intro] Am  C  D  F 
        Am  E  Am  E

[Dedilhado - Intro]

   Am                C                 D
E|----------0-----------------0---------------2-2-----|
B|--------1---1-------------1---1-----------3-----3---|
G|------2-------0---------0-------0-------2---------0-|
D|----2-----------------2--------------0--------------|
A|-0-----------------3--------------------------------|
E|----------------------------------------------------|

   F                   Am              E
E|--------1-1------------------0----------------0-----|
B|------1--------------------1---1------------0---0---|
G|----2-------2--0---------2-------0--------1-------0-|
D|-3---------------------2----------------2-----------|
A|--------------------0-------------------------------|
E|-------------------------------------0--------------|

   Am                E
E|----------0-----------------0-----------------------|
B|--------1---1-------------0---0---------------------|
G|------2-------0---------1-------0-------------------|
D|----2-----------------2-----------------------------|
A|-0--------------------------------------------------|
E|-------------------0--------------------------------|

[Primeira Parte]

[Dedilhado - Primeira Parte]

   Am                C                 D
E|----------0-----------------0---------------2-2-----|
B|--------1---1-------------1---1-----------3-----3---|
G|------2-------0---------0-------0-------2---------0-|
D|----2-----------------2--------------0--------------|
A|-0-----------------3--------------------------------|
E|----------------------------------------------------|

   F                   Am              C
E|--------1-1------------------0----------------0-----|
B|------1-----1--------------1---1------------1---1---|
G|----2----------0---------2-------0--------0-------0-|
D|-3---------------------2----------------2-----------|
A|--------------------0----------------3--------------|
E|----------------------------------------------------|

   E               
E|----------0-----------------0-----------------------|
B|--------0---0-------------0---0---------------------|
G|------1-------1---------1-------0-------------------|
D|----2-----------------2-----------------------------|
A|----------------------------------------------------|
E|-0-----------------0--------------------------------|

   Am                C                 D
E|----------0-----------------0---------------2-2-----|
B|--------1---1-------------1---1-----------3-----3---|
G|------2-------0---------0-------0-------2---------0-|
D|----2-----------------2--------------0--------------|
A|-0-----------------3--------------------------------|
E|----------------------------------------------------|

   F                   Am              E
E|--------1-1-----------------0-----------------0-----|
B|------1-----1-------------1---1-------------0---0---|
G|----2---------0---------2-------0---------1-------0-|
D|-3--------------------2-----------------2-----------|
A|-------------------0--------------------------------|
E|-------------------------------------0--------------|

      Am    C        D          F
There is a house in New Orleans
      Am       C      E   
They call the rising sun
          Am       C 
And it's been the ruin
    D           F
Of many a poor boys
     Am      E       Am  C  D  F 
And God, I know, I'm one

( Am  E  Am  E )
           
[Dedilhado - Interlúdio]

   Am                C                 D
E|----------0-----------------0---------------2-2-----|
B|--------1---1-------------1---1-----------3-----3---|
G|------2-------0---------0-------0-------2---------0-|
D|----2-----------------2--------------0--------------|
A|-0-----------------3--------------------------------|
E|----------------------------------------------------|

   F                   Am              E
E|--------1-1------------------0----------------0-----|
B|------1-----1-0------------1---1------------0---0---|
G|----2--------------------2-------0--------1-------0-|
D|-3---------------------2----------------2-----------|
A|--------------------0-------------------------------|
E|-------------------------------------0--------------|

   Am                E
E|----------0-----------------0-----------------------|
B|--------1---1-------------0---0---------------------|
G|------2-------0---------1-------0-------------------|
D|----2-----------------2-----------------------------|
A|-0--------------------------------------------------|
E|-------------------0--------------------------------|

[Segunda Parte]

    Am     C     D     F
My mother was a tailor
     Am       C        E 
She sewed my new blue jeans
    Am     C     D        F
My father was a gambling man
 Am      E      Am  C  D  F  
Down in New Orleans

( Am  E  Am  E )

[Terceira Parte]

        Am     C       D       F
Now the only things a gambler needs
      Am      C       E   
Is a suitcase and a trunk
        Am    C    D         F
And the only time he's satisfied
     Am      E     Am  C  D  F  
Is when he's all drunk

( Am  E  Am  E )

[Solo] Am  C  D  F 
       Am  C  E
       Am  C  D  F
       Am  E  Am  C  D  F
       Am  E  Am  E

[Quarta Parte]

     Am     C                 D  F
Oh, mother!   Tell your children
        Am     C       E    
Not to do what I have done
  Am        C        D           F
Spend your lives in sin and misery
        Am           E      Am  C  D  F 
In the house of the rising sun
 
( Am  E  Am  E )

[Quinta Parte]

               Am      
Well, I've got one foot 
C        D      F
On the platform
    Am         C        E   
The other foot on the train
     Am    C       D          F
I'm going back to New Orleans
    Am       E         Am  C  D  F  
To wear the ball and chain

( Am  E  Am  E )

[Primeira Parte]

            Am    C    
Well, there is a house
    D          F
In New Orleans
      Am       C      E   
They call the rising sun
          Am       C 
And it's been the ruin
    D           F
Of many a poor boys
     Am      E       Am 
And God, I know, I'm one

[Final] Am  C  D  F  
        Am  E  Am  Dm 
        Am  Dm  Am  Dm 
        Am  Dm  Am  Dm  Am9
00:00 / 00:00
Other videos of this song
Repeat
Other videos of this song
Composed by Alan Price
195.712 views
  • Simplify chords
    • ½ Tone
    • Am
    • Bbm
    • Bm
    • Cm
    • C#m
    • Dm
    • Ebm
    • Em
    • Fm
    • F#m
    • Gm
    • G#m
  • Add to list
    00:00 / 00:00
    OK