Cifra Club

House of The Rising Sun

The Animals

Cifrado: Principal (guitarra y guitarra eléctrica)
tono: Am
[Intro] Am  C  D  F 
        Am  E  Am  E

   Am             C             D
E|----------0--------------0------------2-2-----------|
B|--------1---1----------1---1--------3-----3---------|
G|------2-------2------0-------0----2---------2-------|
D|----2--------------2-----------0--------------------|
A|-0--------------3-----------------------------------|
E|----------------------------------------------------|

   F              Am              E
E|--------1-1--------------0--------------0-----------|
B|------1-----1----------1---1----------0---0---------|
G|----2---------2------2-------2------1-------1-------|
D|-3-----------------2--------------2-----------------|
A|----------------0-----------------------------------|
E|--------------------------------0-------------------|

   Am              E
E|----------0--------------0--------------------------|
B|--------1---1----------0---0------------------------|
G|------2-------2------1-------1----------------------|
D|----2--------------2--------------------------------|
A|-0--------------------------------------------------|
E|----------------0-----------------------------------|

[Primeira Parte] 

      Am    C        D       F
There is a house in New Orleans
      Am       C      E    E
They call the Rising Sun
          Am       C       D         F
And It's been the ruin of many poor boys
     Am      E       Am    C  D  F  Am  E  Am  E
And God, I know, I'm one

[Segunda Parte] 

    Am     C     D     F
My mother was a tailor
     Am       C         E   E
She sewed my new blue jeans
    Am     C     D        F
My father was a gambling man
 Am      E      Am     C  D  F  Am  E  Am  E
Down in New Orleans

[Terceira Parte] 

        Am     C       D       F
And the only things a gambler needs
      Am      C       E   E
Is a suitcase and a trunk
        Am    C      D        F
And the only time he feels satisfied
     Am      E       Am  C  D  F  Am  E  Am  E
Is when he's all a-drunk

[Quarta Parte] 

    Am     C             D       F
So mothers,  tell your children
        Am     C       E    E
Not to do what I have done
  Am        C       D           F
Spend your lives in sin and misery
        Am           E      Am  C  D  F  Am  E  Am  E
In the house of the Rising Sun

[Quinta Parte] 

      Am      C            D      F
I've got one foot on the platform
    Am         C        E   E
And the other foot on the train
     Am          C       D      F
I'm going right back on down to New Orleans
    Am       E         Am   C  D  F  Am  E  Am  E
To wear the ball and chain

[Sexta Parte] 

      Am    C        D           F
There is a house in New Orleans
      Am       C      E    E
They call the Rising Sun
          Am       C       D         F
And It's been the ruin of many poor boys
     Am       E      Am   C  D  F  Am  E  Am  E  Am
And God, I know, I'm one
00:00 / 00:00
Otros videos de esta canción
Repetir
Otros videos de esta canción
Composición de Alan Price
144.366 vistas
    • ½ Tono
    • Am
    • Bbm
    • Bm
    • Cm
    • C#m
    • Dm
    • Ebm
    • Em
    • Fm
    • F#m
    • Gm
    • G#m
  • Agregar a la lista

    0 comentarios

    Ver todos los comentarios
    00:00 / 00:00
    OK