Cifra Club

You're Lost Little Girl

The Doors

Cifrado: Principal (guitarra y guitarra eléctrica)
tono: G
Intro: 

E|--------------------------------|------------------------------|
B|--------------------------------|------------------------------|
G|--------------------------------|------------------------------|
D|-------4---2---0----------------|----4---2---0-----------------|
A|-------------------3---2---0-2--|----------------3---2---0-2---|
E|---0---------------------------3|0---------------------------3-|

Verse:

     Em           C          v
E|------------2--0----------0---|
B|---------0---------1--0h1-----|
G|--------0---------------------|
D|-------2----------------------|
A|------2-----------------------|
E|--0---------------------------|


       Em          C      Em    C
You're lost little girl,
       Em          C      Em    C
You're lost little girl,
       Em            C       G
You're lost, tell me who are you

Chorus:
D              Gm           D     Gm
Think that you know what to do
   D       Gm            D
Impossible yes, but it's true
  G              Bm        F      A
I think that you know what to do  Yeah!
D             Gm            D
Sure that you know what you do

       Em          C      Em   C
You're lost little girl,
       Em          C      Em   C
You're lost little girl,
       Em           C       G    F  A
You're lost tell me who are you

(CHORUS)
       Em          C      Em    C
You're lost little girl,
       Em          C       Em    C
You're lost little girl
       Em9
You're lost
Composición de Jim Morrison / John Densmore / Ray Manzarek / Robby Krieger / The Doors
Colaboración y revisión:
  • Thiago Assis
2.190 vistas
    • ½ Tono
    • A
    • Bb
    • B
    • C
    • Db
    • D
    • Eb
    • E
    • F
    • F#
    • G
    • Ab
  • Agregar a la lista

    0 comentarios

    Ver todos los comentarios

    ¿Lograste tocar?

    6 Tocaron 0 Aún no

    ¡Graba un video tocando You're Lost Little Girl y envíanoslo!

    00:00 / 00:00
    Outros vídeos desta música
    Repetir Calidad Automático
    Outros vídeos desta música
    00:00 / 00:00
    Automático
    OK