Cifra Club

For The Love Of Money

The O'Jays

Tab de bajo: Principal
A classic riff done right! Listen to the song for the various forms of syncopation within. Enjoy!


Intro
|-----7-7--5-5--|-5-5-5-5p4h5/7-|-----7-7--5-5--|-5-5-5-----------|
|---------------|---------------|---------------|-----------------|
|-5-5-----------|---------------|-5-5-----------|------------3-4--|
|---------------|---------------|---------------|------0-5-7------|
 ^^^^^^Played 8 Times ^^^^^^^^^


Verse:  “Some people, got to have it ...”
|-----------|--5-5-5-5p4h5/7---|
|-----------|------------------|
|----5-4-3--|------------------|
|-----------|------------------|
    ^^^^^^Played 6 Times^^^^^^


Break
|----------|
|----------|
|---3p2h3--|
|-5--------|
    ^16x^   


[Back to verse]


Chorus:
		|--------------------|
		|--------------------|
		|------------4-4-----|
		|---3-3-3-3------5---|




Bridge:
|------------------------|------------------------------------|
|-5-------------3h5-3h5--|------------------------------------|
|---2--3--5-5-5----------|------------------------------------|
|------------------------|-5-5-5-5-5-5-5-5-5-5-5-5-5----------|
 ^^^^Played 6 Times^^^^^


00:00 / 00:00
Otros videos de esta canción
Repetir
Otros videos de esta canción
Composición de Anthony Jackson / Kenny Gamble / Leon Huff
53 exhibiciones
00:00 / 00:00
OK