Cifra Club

Der Tanz Der Schatten

Theatre of Tragedy

Cifrado: Principal (guitarra y guitarra eléctrica)
tono: G
Afinar meio tom abaixo (D)

 Gtr. Solo (a casa 5, Bb, pode ser trocada por sua enarmônica na casa 10, para facilitar.)
|------------------|------------------|------------------|------------------|
|------------------|------------------|------------------|------------------|
|------------------|----------5555----|-555---555---555--|---555---555------|
|-9997775599977755-|-999777999----999-|----999---999---9-|-99---999---99999-|
|------------------|------------------|------------------|------------------|
|------------------|------------------|------------------|------------------|

|Gtr. Base
|------------------|------------------|------------------|------------------|
|------------------|------------------|------------------|------------------|
|------------------|------------------|------------------|------------------|
|------------------|------------------|-4----------------|-4----------------|
|-2----------------|-4----------------|-2----------------|-2----------------|
|-0----------------|-2----------------|------------------|------------------|
 
Gtr. Solo/Base
|------------------|------------------|
|------------------|------------------|
|------------------|------------------|
|-6---2------------|-6---2------------|
|-4---0---4--------|-4---0---4--------|
|---------2--------|---------2--------|
 
Gtr. Solo/Base
|----------------------------------| 
|----------------------------------|
|----------------------------------|
|----------------------------------|
|-2---------2---3---0--------------|
|-0--------------------------------|
 
 Gtr. Base
|----------------------------------|
|----------------------------------|
|----------------------------------|
|----------------------------------|
|-----------2---3---0--------------|
|-0--------------------------------|
|
|Gtr. Solo
|----------------------------------|
|----------------------------------|
|----------------------------------|
|-2----2--4------------------------|
|-----------2---3---5------3-------|
|----------------------------------|
 
Gtr. Base
|----------------------------------|
|----------------------------------|
|----------------------------------|
|----------------------------------|
|----------2---3---0---------------|
|-0--------------------------------|
|
|Gtr. Solo
|----------------------------------|
|----------------------------------|
|----------------------------------|
|-2---2---4---------7----5---------|
|-----------2---3-------------3----| 
|----------------------------------| 
 
Gtr. Solo/base (toda em palm mute/abafada)
|----------------------------------|
|----------------------------------|
|----------------------------------|
|---------444455552222222222222222-|
|-22222222222233330000000000000000-|
|-00000000-------------------------|
00:00 / 00:00
Otros videos de esta canción
Repetir
Otros videos de esta canción
Composición de Theatre of Tragedy
Colaboración y revisión:
  • Luca Igansi
70 exhibiciones
    • ½ Tono
    • A
    • Bb
    • B
    • C
    • Db
    • D
    • Eb
    • E
    • F
    • F#
    • G
    • Ab
  • Agregar a la lista
    00:00 / 00:00
    OK