Cifra Club

Not Meant To Be

Theory of a Deadman

Cifrado: Principal (guitarra y guitarra eléctrica)
tono: C (con acordes en la forma de Db) Afinación: Eb Ab Db Gb Bb Eb
Intro/Verso:
Eb|----------0----3--|
Bb|-----3----2----3--|
Gb|-----4----2----0--|
Db|-----4----2----0--|
Ab|-----2----0----2--|
Eb|---------------3--|

Primeira Guitarra:
Eb|------------------|------|
Bb|------------------|------|
Gb|------7-6----6-4--|--4/6-|
Db|---/9------7------|------|
Ab|------------------|------|
Eb|------------------|------|
Repita 3X e, em seguida:

Eb|---------------------|
Bb|------7-5----5-3-3/5-|
Gb|---/7------6---------|
Db|---------------------|
Ab|---------------------|
Eb|---------------------|

Pre-Refrão: 
Eb|-----0----3--|
Bb|-----3----3--|
Gb|-----0----0--|
Db|-----2----0--|
Ab|-----2----2--|
Eb|-----0----3--|

Refrão:
Eb|-----0----0----0----3--|
Bb|-----3----2----3----3--|
Gb|-----2----2----0----0--|
Db|-----0----2----2----0--|
Ab|-----0----0----2----2--|
Eb|---------------0----3--|
Repetir 2X

Pequena parte no plano de fundo (o mesmo que conduz a 2 ª guitarra na intro)
Eb|------------------|
Bb|------7-5----5-3--|
Gb|---/7------6------|
Db|------------------|
Ab|------------------|
Eb|------------------|
Repete 4X

Verso:
Eb|-----0----0----|--3--|
Bb|-----2----3----|--3--|
Gb|-----2----0----|--0--|
Db|-----2----2----|--0--|
Ab|-----0----2----|--2--|
Eb|----------0----|--3--|
Repete 2X então:

Terminará em:
Eb|-----0----|
Bb|-----3----|
Gb|-----2----|
Db|-----0----|
Ab|-----0----|
Eb|----------|

Letra:
It's never enough to say I'm sorry
It's never enough to say I care
But I'm caught between what you wanted from me
And knowin' if I give that to ya I might just disappear

Nobody wins when everyone's losin'

It's like one step forward and two steps back
No matter what I do you're always mad
And I, I can't change you're mind
It's like tryin' to turn around on a one way street
I can't give you what you want and it's killin' me
And I, I'm starting to see
Maybe we're not meant to be

It's never enough to say I love you
No it's never enough to say I tried
It's hard to believe that there's no way out for you and me
And it seems to be the story of our life

There's still time to turn this around
Should we be buildin' this up instead of tearin' it down
But I keep thinkin' maybe it's to late

Baby I'm sorry to see
Maybe we're not meant to be...
Composición de Kara DioGuardi / Theory of a Deadman / Tyler Connolly
Colaboración y revisión:
  • André Elias
  • Antonio Cirino
419 vistas
    • ½ Tono
    • A
    • Bb
    • B
    • C
    • Db
    • D
    • Eb
    • E
    • F
    • F#
    • G
    • Ab
  • Agregar a la lista

    0 comentarios

    Ver todos los comentarios

    ¿Lograste tocar?

    1 Tocaron 0 Aún no

    ¡Graba un video tocando Not Meant To Be y envíanoslo!

    00:00 / 00:00
    Outros vídeos desta música
    Repetir Calidad Automático
    Outros vídeos desta música
    00:00 / 00:00
    Automático
    OK