Cifra Club

Le Chant Du Fou

Hubert-Félix Thiéfaine

Cifrado: Principal (guitarra y guitarra eléctrica)
Selo Cifra Club: esta cifra foi revisada para atender aos critérios oficiais da nossa Equipe de Qualidade.
tono: D
[Intro]
   D           D           Em          Em          C           C
E|-2-----------2-----------------------------------------------------------|
B|-----3---3-------3---3---0-----------0-----------1-----------1-----------|
G|---2---2---2---2---2---------0---0-------0---0-------0---0-------0---0---|
D|-0-----------0---------0---2---2---2---2---2-------2---2---2---2---2---2-|
A|-----------------------------------------------2-3-----------3-----------|
E|-------------------------0-----------0-----------------------------------|

   D           D           E           E           D           D            D      D
E|-2-----------2-----------------------------------2-----------2-----------|
B|-----3---3-------3---3---0-----------0---------------3---2-------3---3---|
G|---2---2---2---2---2---------1---1-------1---1-----2---2---2---2---2---2-|
D|-0-----------0---------0---2---2---2---2---2---2-0-----------0-----------|
A|-------------------------------------------------------------------------|
E|-------------------------0-----------0-----------------------------------|
                                                            Le fou...         a chanté...


[Intro]
D   D   Em  Em
C   C   D   D
E   E   D


[Verse 1]
   D     D      D    D         Em     Em
Le fou    a chanté    dix-sept fois
C                     C
 Les yeux croisés sur son perchoir
D            D
  Une vérité au bout des doigts
D           D              E      E
  Une lampe   entre les mâchoires


[Verse 2]
   D     D      D    D         Em     Em
Le fou    a chanté    dix-sept fois
C                      C
 Puis il est mort de désespoir
D          D                 D      E     E
   Dans un champ de labiales   carnivores


[Bridge 1]
F#m            F#m               Bm
   Tous les tombeaux   se sont ouverts
Bm             Em     Em             A     A
   Pour voir passer      le mort vainqueur
F#m               F#m            Bm
   L'alcool s'est figé   sur ton verre
Bm        Em     Em               A     A
   Ta cigarette     tombe sur ton coeur


[Chorus 1]
C                C       D
   Et tu cherches    une vérité
D        D    D      E     E
   Par-delà      l'espace
C           C          D
 Oui tu cherches   une vérité
D        D    D      E     E     D
   Par-delà      l'espace


[Verse 3]
         D        D        Em    Em
Un autre fou sort   de son trou
C                    C
 Les yeux recouverts de poussière
D          D          E    E    D
  De trois siècles passés   chez Lucifer


[Verse 4]
         D        D        Em    Em
Un autre fou sort   de son trou
C                   C
  Et vient respirer la lumière
D
  Qui gerce les murs d'Hang-Tcheou
D                              E     E
  Comme un grand coup   de cimeterre


[Bridge 2]
F#m          F#m                Bm
   Les feuilles tombent   des cocas
Bm         Em       Em            A     A
   Et se répandent      sur l'Occident
F#m       F#m                   Bm
   Demain    tu verras tous ces petits alchimistes
Bm        Em   Em         A    A
   Pulvériser     un continent


[Outro]
C             C
 Et ta tête   tombe
D             D    E     E
 De son socle   de rêves
C               C
 Ouais ta tête  tombe
D             D    E     E
 De son socle   de rêves
C               C
 Ouais ta tête  tombe
D             D    E     E
 De son socle   de rêves
C               C
 Ouais ta tête  tombe
D             D    E           
 De son socle   de rêves  
         E            C
Ah Ah Ah Ah Ah Ahaha  Heu
C            D     D                
Ah Ah Ah Ah  Heu   Ah Ah Ah Ah Heu  
E          E
Ah Ah Ah Ah
C          C            D    D    
Ah Ah Ah Ah  Heu Aha Ah Ah....  
| E | E | C | C | 
| D | D | E | E |
| C | C | D | D | 
| E | E | C | C | 
| D | D | E | E |
| C | C | D | D |...
(He keeps on laughing)
Otros videos de esta canción
    6 exhibiciones
      • ½ Tono
      • A
      • Bb
      • B
      • C
      • Db
      • D
      • Eb
      • E
      • F
      • F#
      • G
      • Ab
    • Agregar a la lista

    Afinação da cifra

    Afinador online

      Ops (: Contenido disponible solo en portugués.
      OK