Cifra Club

Quien llora por tí

Tierra Santa

Cifrado: Principal (guitarra y guitarra eléctrica)
tono: Am

E|-------------------------------------------------------|
B|-------------------------------------------------------|
G|---5--7--10/9-----5--7--10/9--10-7--9-10-11-12--14-12--|
D|-7--------------7--------------------------------------|
A|-------------------------------------------------------|
E|-------------------------------------------------------|

E|-------------------------------------------------------|
B|----------------------12--10--9--7--9--7--9--10-9-7-9--|
G|--7--9--7--9--10--9------------------------------------|
D|-------------------------------------------------------|
A|-------------------------------------------------------|
E|-------------------------------------------------------|

E|-------------------------------------------------------|
B|-------------------------------------------------------|
G|-------------------------------------------------------|
D|-10--5--7-----------10/-5/-7-----------10/-7/-5--------|
A|-10--5--7-7-7-7-7---10/-5/-7-7-7-7-7---10/-7/-5-5-5-5-5|
E|--8--3--5-5-5-5-5p| m--8/-3/-5-5-5-5-5pm--8/-5/-3-3-3-3-3

E|------------------------------------------------------|
B|------------------------------------------------------|
G|------------------------------------------------------|
D|-------7------------10--5--7-----------10/-7/-5--------|
A|-------7--7-7-7-7---10--5--7--7-7-7-7--10/-7/-5-5-5-5-5|
E|-7--3--5--5-5-5-5p| m--8--3--5--5-5-5-5---8/-5/-3-3-3-3-3

                donde esta el dolor
E|------------------------------------------------------|
B|------------------------------------------------------|
G|------------------------------------------------------|
D|-3-------------7--10--5--7---10--7--5-5--7-7----------|
A|-3-3-3-3-3p| m---7--10--5--7---10--7--5-5--7-7----------
E|-1-1-1-1-1-----5--8---3--5---8---5--3-3--5-5--7--3----|

  donde duerme el mal
E|------------------------------------------------------|
B|------------------------------------------------------|
G|------------------------------------------------------|
D|-7-----------10--5--7--10-7--5----------3-------------|
A|-7--7-7-7-7--10--5--7--10-7--5-5-5-5-5--3-3-3-3-3-----|
E|-5--5-5-5-5--8---3--5--8--5--3-3-3-3-3--1-1-1-1-1-----|

  (coro)  Quien llora por ti       donde esta el valor
E|------------------------------------------------------|
B|------------------------------------------------------|
G|------------------------------------------------------|
D|-5-5--7--7--7/-7-7--10/-5--5--3--5---------7----------|
A|-5-5--7--7--7/-7-7--10/-5--5--3--5---------7-7-7-7-7-7|
E|-3-3--5--5-------5------3--3--1--3--7--3---5-5-5-5-5-5|

E|-----------------------------------------------------|
B|-----------------------------------------------------|
G|-----------------------------------------------------|
D|-10--5--7----------10--7--5-----------7--------------|
A|-10--5--7-7-7-7-7--10--7--5-5-5-5-5---7--7-7-7-7-----|
E|-8---3--5-5-5-5-5--8---5--3-3-3-3-3---5--5-5-5-5-7-3-|

E|-----------------------------------------------------|
B|-----------------------------------------------------|
G|-----------------------------------------------------|
D|-7-----------10--5--7------------10--7--5--------3-3-|
A|-7--7-7-7-7--10--5--7--7-7-7-7---10--7--5-5-5-5--3-3-|
E|-5--5-5-5-5--8---3--5--5-5-5-5---8---5--3-3-3-3--1-1-|

    temblar de dolor      pero siempre hay un lugar
E|-----------------------------------------------------|
B|-----------------------------------------------------|
G|-----------------------------------------------------|
D|-3--7--7/--7--10--5--5--3-3--------7/-3-5--3--5--7---|
A|-3--7--7/--7--10--5--5--3-3--------7/-3-5--3--5--7---|
E|-1--5------5--8---3--3--1-1--7--3--5/-1-3--1--3--5---|

E|-----------------------------------------------------|
B|-----------------------------------------------------|
G|-----------------------------------------------------|
D|-3--5--3--5--7--3--5--3--5--7--3--5--7----------10---|
A|-3--5--3--5--7--3--5--3--5--7--3--5--7-7-7-7-7--10---|
E|-1--3--1--3--5--1--3--1--3--5--1--3--5-5-5-5-5--8----|

E|-----------------------------------------------------|
B|-----------------------------------------------------|
G|-----------------------------------------------------|
D|-5--7-----------10--7--5-----------7---------| -5-7---
A|-5--7--7-7-7-7--10--7--5--5-5-5-5--7-7-7-7-7p| m-5-7---
E|-3--5--5-5-5-5--8---5--3--3-3-3-3--5-5-5-5-5p| m-3-5---

E|-----------------------------------------------------|
B|-----------------------------------------------------|
G|-----------------------------------------------------|
D|-------------10--5--7--------10--7--5--------3-------|
A|-7-7-7-7-p| m--10--5--7-7-7-7--10--7--5-5-5-5--3-3-3-3-
E|-5-5-5-5-----8---3--5-5-5-5---8--5--3-3-3-3--1-1-1-1-|

         durante el (solo)
E|-----------------------------------------------------|
B|-----------------------------------------------------|
G|-----------------------------------------------------|
D|--------7--------------------------------------------|
A|--------7--7-7-7-7-7-p| m--7-7-7-7-7-7-7-pm--5-5-5-5-5-
E|-7--3---5--5-5-5-5-5-----5-5-5-5-5-5-5-----3-3-3-3-3-|

E|-----------------------------------------------------|
B|-----------------------------------------------------|
G|-----------------------------------------------------|
D|-----------------------------------------------------|
A|--7-7-7-7-7-7-p| m--7-7-7-7-7-pm--5-5-5-5-5-5-pm--7--3-
E|--5-5-5-5-5-5-----5-5-5-5-5-----3-3-3-3-3-3-----5--1-|


se repiten las mismas notas al final. escuchen la
rola  para  acoplarse
ps.  trabajare en el solo en unos cuantos dias.
TE AMO  Alicia
Composición de Tierra santa
    • ½ Tono
    • Am
    • Bbm
    • Bm
    • Cm
    • C#m
    • Dm
    • Ebm
    • Em
    • Fm
    • F#m
    • Gm
    • G#m
  • Agregar a la lista

    0 comentarios

    Ver todos los comentarios

    ¿Lograste tocar?

    0 Tocaron 0 Aún no

    ¡Graba un video tocando Quien llora por tí y envíanoslo!

    00:00 / 00:00
    Outros vídeos desta música
    Repetir Calidad Automático
    Outros vídeos desta música
    00:00 / 00:00
    Automático
    OK