Cifra Club

Bis zum bitteren Ende

Die Toten Hosen

Cifrado: Principal (guitarra y guitarra eléctrica)
Selo Cifra Club: esta cifra foi revisada para atender aos critérios oficiais da nossa Equipe de Qualidade.
tono: F
                                     (TAB)


This song is very simple, but it just rocks... comments and corrections welcome.
Have fun!

[c]   [F]   [G]   \
                   \
|---| |---| |---|   \
|---| |---| |---|    \
|---| |---| |---|    / The whole song basically consists on these three chords.
|-5-| |-3-| |-5-|   /
|-5-| |-3-| |-5-|  /
|-3-| |-1-| |-3-| /


[INTRO]

|-----------------------------15-15-13-12-13-12----15-15-13-12-13-12----12-----|
|-------12-13~--12-13-13-13~--------------------13-------------------15----13~-|
|-12-14------------------------------------------------------------------------|
|------------------------------------------------------------------------------|
|------------------------------------------------------------------------------|
|------------------------------------------------------------------------------|

|---------------15-15-13-12-13-12----15-15-13-12-13-12----12-------------------|
|-12-13-13-13~--------------------13-------------------15----------------------|
|------------------------------------------------------------------------------|
|------------------------------------------------------------------------------|
|------------------------------------------------------------------------------|
|------------------------------------------------------------------------------|


[BRIDGE]

Play this part after "immer geahnt".
|----------------------------------|
|-----6-5-3-----6-5-3-----6-5-3-3~-|
|-5-5-------5-5-------5-5----------|
|----------------------------------|
|----------------------------------|
|----------------------------------|

After having played the part above you can vary like:
|--------------------------------------------------|
|-------18-17-15-------18-17-15-------18-17-15-15~-|
|-17-17----------17-17----------17-17--------------|
|--------------------------------------------------|
|--------------------------------------------------|
|--------------------------------------------------|


[OUTRO]

Song ends with:
|------------------------------------------------------------------------------|
|------------------------------------------------------------------------------|
|-5-5-5-5-5-/8-8-\7-7-7-/8-/10-10-\8-\7-/8-/10-10-/12--------------------------|
|-5-5-5-5-5-/8-8-\7-7-7-/8-/10-10-\8-\7-/8-/10-10-/12--------------------------|
|-3-3-3-3-3-/6-6-\5-5-5-/6-/8--8--\6-\5-/6-/8--8--/10--------------------------|
|------------------------------------------------------------------------------|


[INTRO]


[C]
Und die Jahren ziehen ins Land
        [F]                [G]
und wir trinken immer noch ohne Verstand
     [C]
denn eins das wissen wir gans genau
     [F]             [G]
Ohne Alk da w?re der Alltag zu grau.


[C]
Korn, Bier, Schnaps und Wein
        [F]           [G]
und wir hoeren unsere Leber schreien
    [C]
und wenn einmal de Abschied naht
      [F]                          [G]
sagen alle das hab ich schon immer geahnt.


[BRIDGE]


[C]
Und die Jahren ziehen ins Land
        [F]                [G]
und wir trinken immer noch ohne Verstand
     [C]
denn eins das wissen wir gans genau
     [F]             [G]
Ohne Alk da w?re der Alltag zu grau.


[C]
Korn, Bier, Schnaps und Wein
        [F]           [G]
und wir hoeren unsere Leber schreien
    [C]
und wenn einmal de Abschied naht
      [F]                          [G]
sagen alle das hab ich schon immer geahnt.


[SOLO: NOT TABBED]


[C]
Und die Jahren ziehen ins Land
        [F]                [G]
und wir trinken immer noch ohne Verstand
     [C]
denn eins das wissen wir gans genau
     [F]             [G]
Ohne Alk da w?re der Alltag zu grau.


[C]
Korn, Bier, Schnaps und Wein
        [F]           [G]
und wir hoeren unsere Leber schreien
    [C]
und wenn einmal de Abschied naht
      [F]                          [G]
sagen alle das hab ich schon immer geahnt.


[OUTRO]
Otros videos de esta canción
    46 exhibiciones
      • ½ Tono
      • A
      • Bb
      • B
      • C
      • Db
      • D
      • Eb
      • E
      • F
      • F#
      • G
      • Ab
    • Agregar a la lista

    Afinação da cifra

    Afinador online

      Ops (: Contenido disponible solo en portugués.
      OK