Cifra Club

Were Gonna Have A Real Good Time Together

The Velvet Underground

Tab de bajo: Principal
--------------------------------------------------|
--------------------------------------------------|
--------------------------------------------------|
--5-5-5-5-5-5-5-5-7-7-7-7-7-7-7-0-0-0-0-0-0-0-0-0-|

--------------------------------------------------|
--------------------------------------------------|
--------------------------------------------------|
--5-5-5-5-5-5-5-5-7-7-7-7-7-7-7-0-0-0-0-0-0-0-0-0-|

--------------------------------------------------|
--------------------------------------------------|
--------------------------------------------------|
--5-5-5-5-5-5-5-5-7-7-7-7-7-7-7-0-0-0-0-0-0-0-0-0-|

----------------------------------------------------|
----------------------------------------------------|
--------------------------------5-5-5-5-5-5-5-5-5-5-|
--5-5-5-5-5-5-5-5-7-7-7-7-7-7-7---------------------|
Composición de Lou Reed
39 vistas

0 comentarios

Ver todos los comentarios

¿Lograste tocar?

0 Tocaron 0 Aún no

¡Graba un video tocando Were Gonna Have A Real Good Time Together y envíanoslo!

00:00 / 00:00
Otros videos de esta canción
Repetir Calidad Automático
Otros videos de esta canción
00:00 / 00:00
Automático
OK