Cifra Club

Kyodai Shoujo (Gigantic Girl)

VOCALOID

Cifrado: Principal (guitarra y guitarra eléctrica)
tono: G
Intro / Verse

||------------------------------------------||
||------------------------------------------||
||-10-8---10--6-8-10------------------------|| x 2 
||-10-8-8-10--6-8-10------------------------||
||-8--6-8-8---4-6-8-------------------------||
||------6-----------------------------------||


After Verse 1 Solo

||------------------------------------------||
||------------------------------------------||
||-10----12----10----10----12----10---------||
||----10----10----10----10----10----10------||
||------------------------------------------||
||------------------------------------------||

||------------------------------------------||
||----10-11-10------------------------------||
||-10----------12-10-9-10----12----10-------||
||------------------------10----10----10----||
||------------------------------------------||
||------------------------------------------||

||------------------------------------------||
||9-8---------------------------------------||
||----10-9-10-------------------------------||
||------------------------------------------||
||------------------------------------------||
||------------------------------------------||


Repeat Verse


Chorus

||------------------------------------------||
||------------------------------------------||
||-7---5-6--7---5-10------------------------||
||-7-8-5-6--7-8-5-10------------------------|| x 2
||-5-8-3-4--5-8-3-8-------------------------||
||---6--------6-----------------------------||

||------------------------------------------||
||------------------------------------------||
||-6-8-6-8-6-8------------------------------||
||-6-8-6-8-6-8-10---------------------------||
||-4-6-4-6-4-6-10---------------------------||
||-------------8----------------------------||


Repeat Verse


Repeat After Verse 1 Solo


||------------------------------------------||
||-10-11-10---------------------------------||
||----------10-------10----12----10---------|| x 2
||-------------10-10----10----10----10------||
||------------------------------------------||
||------------------------------------------||

||------------------------------------------------------||
||-10-10/11-10------------------------------------------||
||-------------10----10/12-10-------------10/12-10--/17-||
||----------------10----------10-8-6-8-10---------------||
||------------------------------------------------------||
||------------------------------------------------------||


Repeat Verse


Mini Solo 

||------------------------------------------||
||------------------------------------------||
||-10----10----10-10/12-10------------------||
||-10-10----10------------------------------||
||-8----------------------------------------||
||------------------------------------------||

||------------------------------------------||
||----------10/11-10------------------------||
||----10-------------10---------------------||
||-10----10---------------------------------||
||------------------------------------------||
||------------------------------------------||

||------------------------------------------||
||------------------------------------------||
||----10----10-10/12-10---------------------||
||-10----10---------------------------------||
||------------------------------------------||
||------------------------------------------||


Repeat Chorus

Repeat Mini Solo
00:00 / 00:00
Otros videos de esta canción
Repetir
Otros videos de esta canción
Compositor no encontrado.
Colaboración y revisión:
  • Sabrina Banca
55 vistas
    • ½ Tono
    • A
    • Bb
    • B
    • C
    • Db
    • D
    • Eb
    • E
    • F
    • F#
    • G
    • Ab
  • Agregar a la lista

    0 comentarios

    Ver todos los comentarios

    ¿Lograste tocar?

    0 Tocaron 0 Aún no

    ¡Graba un video tocando Kyodai Shoujo (Gigantic Girl) y envíanoslo!

    00:00 / 00:00
    OK