Cifra Club

Farewell To The Fairground

White Lies

Tab de bajo: Principal
e|--11-9---------11-9---------|
B|-------9-7-9--------9-------|
G|9------------9--------11----|
D|-------------------------11-|
A|----------------------------|
E|----------------------------|

e|9---|
B|9---|
G|9---|
D|11--|
A|11--|
E|9---|

e|5-7-9--4---7-|
B|5-7-9--4---7-|
G|6-8-9--4---8-|
D|7-9-11-6---9-|
A|7-9-11-6---9-|
E|5-7-9--4---7-|

Ponte:

e|--------|
B|muted---|
G|--------|
D|2-9-11--|
A|2-9-11--|
E|0-7-9---|


e|7-7-9----|
B|9-7-9----|
G|9-8-9----|
D|9-9-11---|
A|7-9-11---|
E|--7-9----|

Final:
e|--------|
B|--------|
G|9-11-13-|
D|x-x--x--|
A|7-9--11-|
E|--------|
00:00 / 00:00
Otros videos de esta canción
Repetir
Otros videos de esta canción
Composición de White Lies
Colaboración y revisión:
  • WILFER RODRIGO
5 exhibiciones
00:00 / 00:00
OK