Cifra Club

A Culpa É do Meu Grau (part. Diego e Victor Hugo)

Zé Neto e Cristiano

Cifrado: Principal (guitarra y guitarra eléctrica)
Quer fazer aulas de música com a gente? Responda essas perguntas
e nos ajude nesse projeto! →
tono: F# (con acordes en la forma de F) Capotraste en 1ª casa
[Intro] F  C  Bb9

E|------------------------------------------|
B|-5/6-6-6-6-5------------------------------|
G|-------------7-5-----5-5---4h5------------|
D|-5/7-7-7-7-5-----5/7-----7----------------|
A|------------------------------------------|
E|------------------------------------------|

E|------------------------------------------|
B|-5/6-6-6-6-5------------------------------|
G|-------------7-5-----5-5---4h5------------|
D|-5/7-7-7-7-5-----5/7-----7----------------|
A|------------------------------------------|
E|------------------------------------------|

E|------------------------------------------|
B|------------------------------------------|
G|------------------------------------------|
D|-5-7-8-7-5h7p5-7--------------------------|
A|-----------------8------------------------|
E|------------------------------------------|

[Primeira Parte]
  
    F
O freezer ta marcando menos quatro
    C
Ta todo mundo alegre e eu grilado
                    Dm7
Oque é que eu to fazendo aqui
                Bb9
Passou da meia noite e ainda não bebi

[Pré-Refrão]

                 F
É que eu fiz promessa pra parar
                C
Pra vê se você volta mais não dá
                 Dm7
Eu encaro a  garrafa ela me encara não tem jeito
                Bb9                        
É questão de segundo eu vou mandar ela pro peito

[Refrão]

                        F
Se eu não beber eu fico anti-social
                       C
Se eu fico são o povo vê que eu to mal
                            Dm7
Como é que eu vou ligar pra ela com a voz normal
                      Bb9                    
Se eu já acostumei jogar a culpa no meu grau

                        F
Se eu não beber eu fico anti-social
                       C
Se eu fico são o povo vê que eu to mal
                            Dm7
Como é que eu vou ligar pra ela com a voz normal
                      Bb9
Se eu já acostumei jogar a culpa no meu grau

A culpa é do meu grau

[Solo] F  C  Dm7  Bb9

E|------------------------------------------|
B|-5/6-6-6-6-5------------------------------|
G|-------------7-5-----5-5---4h5------------|
D|-5/7-7-7-7-5-----5/7-----7----------------|
A|------------------------------------------|
E|------------------------------------------|

E|------------------------------------------|
B|-5/6-6-6-6-5------------------------------|
G|-------------7-5-----5-5---4h5------------|
D|-5/7-7-7-7-5-----5/7-----7----------------|
A|------------------------------------------|
E|------------------------------------------|

E|------------------------------------------|
B|-------------------5/6-6-6-6-5------------|
G|-5-5-5-5-5-5-5-5-7-------------7-5--------|
D|------------------------------------------|
A|------------------------------------------|
E|------------------------------------------|

E|-5----------------------------------------|
B|---8-6-5----------------------------------|
G|---------7-5------------------------------|
D|-------------7-5--------------------------|
A|-----------------8------------------------|
E|------------------------------------------|


[Pré-Refrão]

                 F
É que eu fiz promessa pra parar
                C
Pra vê se você volta mais não dá
                 Dm7
Eu encaro a  garrafa ela me encara não tem jeito
                Bb9                        
É questão de segundo eu vou mandar ela pro peito

[Refrão]

                        F
Se eu não beber eu fico anti-social
                       C
Se eu fico são o povo vê que eu to mal
                            Dm7
Como é que eu vou ligar pra ela com a voz normal
                      Bb9                    
Se eu já acostumei jogar a culpa no meu grau

                        F
Se eu não beber eu fico anti-social
                       C
Se eu fico são o povo vê que eu to mal
                            Dm7
Como é que eu vou ligar pra ela com a voz normal
                      Bb9
Se eu já acostumei jogar a culpa no meu grau

                        F
Se eu não beber eu fico anti-social
                       C
Se eu fico são o povo vê que eu to mal
                            Dm7
Como é que eu vou ligar pra ela com a voz normal
                      Bb9
Se eu já acostumei jogar a culpa no meu grau

A culpa é do meu grau

[Final] F  C  Bb  F

E|------------------------------------------|
B|-5/6-6-6-6-5------------------------------|
G|-------------7-5-----5-5---4h5------------|
D|-5/7-7-7-7-5-----5/7-----7----------------|
A|------------------------------------------|
E|------------------------------------------|

E|------------------------------------------|
B|-5/6-6-6-6-5------------------------------|
G|-------------7-5-----5-5---4h5------------|
D|-5/7-7-7-7-5-----5/7-----7----------------|
A|------------------------------------------|
E|------------------------------------------|
Compositor não encontrado.
Colaboración y revisión:
  • Thiago Almeida
1.089 vistas
    • ½ Tono
    • A
    • Bb
    • B
    • C
    • Db
    • D
    • Eb
    • E
    • F
    • F#
    • G
    • Ab
  • Agregar a la lista

    0 comentarios

    Ver todos los comentarios

    ¿Lograste tocar?

    0 Tocaron 0 Aún no

    ¡Graba un video tocando A Culpa É do Meu Grau (part. Diego e Victor Hugo) y envíanoslo!

    00:00 / 00:00
    Outros vídeos desta música
    Repetir Calidad Automático
    Outros vídeos desta música
    00:00 / 00:00
    Automático
    OK