Cifra Club

Quero Conhecer Jesus

Alessandro Vilas Boas

Cifrado: Principal (guitarra y guitarra eléctrica)
Quer fazer aulas de música com a gente? Responda essas perguntas
e nos ajude nesse projeto! →
tono: G
[Intro] C  D9(11)  Em7  Bm7
        C  D9(11)  Em7  Bm7

                                       H/
E|-----------------10---------7--------7-----|
B|-7b8r7---------8------8/10----10-----7-----|
G|--------9----9-----------------------7-----|
D|----------10-------------------------7-----|
A|-------------------------------------------|
E|-------------------------------------------|

                               H/       H/
E|-----------------------------12-------7----|
B|---------10-10h12-10~--------12-------7----|
G|--/9--12--------------12-9~--12-------7----|
D|-----------------------------12-------7----|
A|-------------------------------------------|
E|-------------------------------------------|

         C                    D9(11)
O meu orgulho me tirou do jardim
          Em7                      Bm7
Tua humildade colocou o jardim em mim

        C       D9(11)  Em7      Bm7
E|-------------------------------------------|
B|-------------------------------------------|
G|----------0-------0-------7---------2------|
D|--------2-------4-------5---------0--------|
A|------3-------5-------7---------2----------|
E|-------------------------------------------|

            C
E se eu vendesse tudo o que tenho
     D9(11)               Em7  Bm7
Em troca do amor eu falharia

                               H/       H/
E|-----------------------------12-------7----|
B|---------10-10h12-10~--------12-------7----|
G|--/9--12--------------12-9~--12-------7----|
D|-----------------------------12-------7----|
A|-------------------------------------------|
E|-------------------------------------------|

         C                  D9(11)
Pois o amor não se compra, nem se merece
    Em7               Bm7
O amor se ganha, de graça o recebe

[Refrão]

E|----15-14----------------------------------|
B|----------17-15h17-17-15-15h17-------------|
G|-12----------------------------16~-14~-----|
D|-------------------------------------------|
A|-------------------------------------------|
E|-------------------------------------------|

     C               D9(11)
Eu quero conhecer Jesus
     Em7             Bm7              
Eu quero conhecer Jesus e ser achado Nele

     C               D9(11)
Eu quero conhecer Jesus
     Em7             Bm7
Eu quero conhecer Jesus

[Primeira Parte]

                               H/       H/
E|-----------------------------12-------7----|
B|---------10-10h12-10~--------12-------7----|
G|--/9--12--------------12-9~--12-------7----|
D|-----------------------------12-------7----|
A|-------------------------------------------|
E|-------------------------------------------|

         C                    D9(11)
O meu orgulho me tirou do jardim
          Em7                      Bm7
Tua humildade colocou o jardim em mim
            C
E se eu vendesse tudo o que tenho
     D9(11)               Em7  Bm7
Em troca do amor eu falharia

E|-12....-14....-15....-14....--10-----------|
B|--x------x------x------x-------x-----------|
G|--9....-11....-12....-11....---7-----------|
D|-------------------------------------------| 2x
A|-------------------------------------------|
E|-------------------------------------------|

E|-12....-14....-15....-17....---------------|
B|--x------x------x------x-------------------|
G|--9....-11....-12....-14....---------------|
D|-------------------------------------------|
A|-------------------------------------------|
E|-------------------------------------------|

         C                  D9(11)
Pois o amor não se compra, nem se merece
    Em7               Bm7
O amor se ganha, de graça o recebe

[Refrão]

     C               D9(11)
Eu quero conhecer Jesus
     Em7             Bm7
Eu quero conhecer Jesus

     C               D9(11)
Eu quero conhecer Jesus
     Em7             Bm7
Eu quero conhecer Jesus

              C   
E ser achado Nele
              D 
E ser achado Nele
              Em7   Bm7
E ser achado Nele

              C   
E ser achado Nele
              D 
E ser achado Nele
              Em7   Bm7
E ser achado Nele

[Ponte]

(Violão)

       C          C          Em      G    D
E|--------------------------------------------|
B|--3--5--3-5--3--5--3--5--7-8--7-8--12---7---|
G|--------------------------------------------|
D|--------------------------------------------| 4x
A|--2--3--2-3--2--3--2--3--5-7--5-7--10---5---|
E|--------------------------------------------|

(Guitarra)

E|--------------------------------------------|
B|--3--5-------3--5--------7-8-------12---7---|
G|--------------------------------------------|
D|--------------------------------------------|
A|--2--3-------2--3--------5-7-------10---5---|
E|--------------------------------------------|

E|--------------------------------------------|
B|--3--5--8-12-15-17-15-17-13--12-10-12-15--7-|
G|--------------------------------------------|
D|--------------------------------------------|
A|--2--3--7-10-14-15-14-15-12--10--9-10-14--5-|
E|--------------------------------------------|

E|--------------------------------------------|
B|--3--5--3-5--3--5--3--5--7-8--7-8--12---7---|
G|--------------------------------------------|
D|--------------------------------------------|
A|--2--3--2-3--2--3--2--3--5-7--5-7--10---5---|
E|--------------------------------------------|

    C   Em  G  D/F#
Yeshua_________a!
    C   Em  G  D/F#
Yeshua_________a!
    C   Em  G  D/F#
Yeshua_________a!
    C   Em  G  D/F#
Yeshua_________a!

[Refrão]

        C             Em
O meu amado é o mais belo
          G          D/F#
Entre milhares e milhares
        C             Em
O meu amado é o mais belo
          G          D/F#
Entre milhares e milhares

        C             Em
O meu amado é o mais belo
          G          D/F#
Entre milhares e milhares
        C             Em
O meu amado é o mais belo
          G          D/F#
Entre milhares e milhares

[Ponte]

E|-15-15-14-14-12-12---------------------------------|
B|-------------------15-15-12-12---------------------|
G|-------------------------------14-14-12-12-12-12---|
D|---------------------------------------------------|
A|---------------------------------------------------|
E|---------------------------------------------------|

E|-17-17-15-15-14-14-12-12---------------------------|
B|-------------------------15-15-12-12---------------|
G|-------------------------------------14-14-12-12---|
D|---------------------------------------------------|
A|---------------------------------------------------|
E|---------------------------------------------------|

          C
Meu preferido, meu predileto
          C
Meu preferido, meu predileto    
     Em       D/F#
É Jesus (é Jesus)

[Solo]

    C   Em  G  D/F#
Yeshua_________a!
    C   Em  G  D/F#
Yeshua_________a!
    C   Em  G  D/F#
Yeshua_________a!

        C             Em
O meu amado é o mais belo
          G          D/F#
Entre milhares e milhares
        C             Em
O meu amado é o mais belo
          G          D/F#
Entre milhares e milhares

        C             Em
O meu amado é o mais belo
          G          D/F#
Entre milhares e milhares
        C             Em
O meu amado é o mais belo
          G          D/F#
Entre milhares e milhares
Composición de Alessandro Vilas Boas
9.175 vistas
    • ½ Tono
    • A
    • Bb
    • B
    • C
    • Db
    • D
    • Eb
    • E
    • F
    • F#
    • G
    • Ab
  • Agregar a la lista

    0 comentarios

    Ver todos los comentarios

    ¿Lograste tocar?

    85 Tocaron 46 Aún no

    ¡Graba un video tocando Quero Conhecer Jesus y envíanoslo!

    00:00 / 00:00
    Outros vídeos desta música
    Repetir Calidad Automático
    Outros vídeos desta música
    00:00 / 00:00
    Automático
    OK