Cifra Club

Pensou Errado(pensou Que Eu Ia Chorar Por Você)

Aviões do Forró

Cifrado: Principal (guitarra y guitarra eléctrica)
tono: F
Intro: F, Bb, C, Dm, Bb, C, F. Bb, C, Dm, C, F

e|--------------------------------------------------------------------
B|--------------------------------------------------------------------
G|-----2-2-2-3-2-------2--2-2-2-3-2----------2-2-2-3-2-------2--------
D|-5-3-----------5-3-5--------------5-3-5-3------------5-3-5----3-3-2-
A|--------------------------------------------------------------------
E|--------------------------------------------------------------------

e|--------------------------------------------------------------------
B|--------------------------------------------------------------------
G|-2-3-2--------------------------------------------------------------
D|-------5-3----------------------------------------------------------
A|--------------------------------------------------------------------
E|--------------------------------------------------------------------

F
Não vou negar
                 A7                  Dm  Bb C
Sofri demais quando você me deu o fora
 F 
Mas o tempo passa
         A7                    Dm  Bb C
O mundo gira, o mundo é uma bola

    F                       Dm
Pintei o meu cabelo, me valorizei
                                 F
Entrei na academia, eu malhei, malhei
                                   Dm               C  
Dei a volta por cima e hoje te mostrei meu novo namorado

F               Bb    C       F
Pensou que eu ia chorar por você,
        Bb    C       F
Que eu ia morrer de amor,
        Bb   C         F
Que eu ia pedir pra voltar,
         C          F  
ah, ah, ah, ah, ah, ah

       Bb     C       F
Que eu ia chorar por você,
        Bb    C       F
Que eu ia morrer de amor,
        Bb   C        Dm
Que eu ia pedir pra voltar.
         C         F
ah, ah, ah, ah, ah, ah

solo de introdução(repete tudo) 

É só ouvir a canção, que o solo é bem fácil!!
Compositor não encontrado.
Colaboración y revisión:
  • bruno negreiros
88 vistas
    • ½ Tono
    • A
    • Bb
    • B
    • C
    • Db
    • D
    • Eb
    • E
    • F
    • F#
    • G
    • Ab
  • Agregar a la lista

    0 comentarios

    Ver todos los comentarios

    ¿Lograste tocar?

    0 Tocaron 0 Aún no

    ¡Graba un video tocando Pensou Errado(pensou Que Eu Ia Chorar Por Você) y envíanoslo!

    00:00 / 00:00
    Outros vídeos desta música
    Repetir Calidad Automático
    Outros vídeos desta música
    00:00 / 00:00
    Automático
    OK