Cifra Club

Você Não Me Ensinou a Te Esquecer

Caetano Veloso

Cifrado: Principal (guitarra y guitarra eléctrica)
tono: C (con acordes en la forma de A) Capotraste en 3ª casa
[Primeira Parte] 

     Am
Não vejo mais você faz tanto tempo
B7
   Que vontade que eu sinto
      Dm
De olhar em seus olhos
               E7 
Ganhar seus abraços
Am                       E7
   É verdade, eu não minto


   Am
E nesse desespero em que me vejo
       B7
Já cheguei a tal ponto
Dm                        E7
   De me trocar diversas vezes

Por você
Am                           A7
   Só pra ver se te encontro

[Pré-Refrão] 

   Dm                   G
Você bem que podia perdoar
   E7                     Am
E só mais uma vez me aceitar
    Dm                      E7
Prometo agora vou fazer por onde
               Am   A7
Nunca mais perdê-la

[Refrão] 

   F         G                    E7
Agora, que faço eu da vida sem você
   Am                          Dm
Você não me ensinou a te esquecer
   E7                       Am
Você só me ensinou a te querer

E te querendo
           A7
Eu vou tentando te encontrar

           F
Vou me perdendo
    G                            E7
Buscando em outros braços seus abraços
    Am                      Dm
Perdido no vazio de outros passos
     E7                       Am
Do abismo em que você se retirou
                     A7
E me atirou e me deixou aqui sozinho


  F         G                     E7
Agora, que faço eu da vida sem você
   Am                          Dm
Você não me ensinou a te esquecer
   E7                       Am
Você só me ensinou a te querer

E te querendo
           E7
Eu vou tentando te encontrar

[Segunda Parte] 

Am
   E nesse desespero em que me vejo
B7
   Já cheguei a tal ponto
Dm                        
   De me trocar diversas vezes
 E7
Por você
            Am            E7
Só pra ver se te encontro

[Base Solo] 

Am  B7  Dm  E7  Am  A7

[Pré-Refrão] 

   Dm                   G
Você bem que podia perdoar
   E7                     Am
E só mais uma vez me aceitar
    Dm                      E7
Prometo agora vou fazer por onde
               Am   A7
Nunca mais perdê-la

[Refrão] 

  F         G                    E7
Agora, que faço eu da vida sem você
   Am                          Dm
Você não me ensinou a te esquecer
   E7                       Am
Você só me ensinou a te querer

E te querendo
           A7
Eu vou tentando te encontrar

           F
Vou me perdendo
    G                            E7
Buscando em outros braços seus abraços
    Am                      Dm
Perdido no vazio de outros passos
     E7                       Am
Do abismo em que você se retirou
                     A7
E me atirou e me deixou aqui sozinho

  F         G                     E7
Agora, que faço eu da vida sem você
   Am                          Dm
Você não me ensinou a te esquecer
   E7                       Am
Você só me ensinou a te querer

E te querendo
           A7
Eu vou tentando te encontrar

           F
Vou me perdendo
    G                             E7
Buscando em outros braços seus abraços
    Am                      Dm
Perdido no vazio de outros passos
     E7                       Am
Do abismo em que você se retirou
                     A7
E me atirou e me deixou aqui sozinho

  F         G                     E7
Agora, que faço eu da vida sem você
   Am                          Dm
Você não me ensinou a te esquecer
   E7                       Am
Você só me ensinou a te querer

E te querendo
           E7                Am
Eu vou tentando me encontrar

[Pré-Refrão] 

Parte 01 De 04

   Dm               G
E|-------1----------------------------------|
B|-----3-3--3-------------3-----------------|
G|---2----------2-------4-4--4--------------|
D|-0-----0----0-------5----------5----------|
A|------------------------------------------|
E|------------------3-----3----3------------|

Parte 02 De 04

   E7               Am
E|------------------------0-----------------|
B|-------0--------------1-1--1--------------|
G|-----1-1--1---------2----------2----------|
D|---0----------0---------------------------|
A|------------------0-----0----0------------|
E|-0-----0----0-----------------------------|

Parte 03 De 04

   Dm               E7
E|-------1----------------------------------|
B|-----3-3--3-------------0-----------------|
G|---2----------2-------1-1--1--------------|
D|-0-----0----0-------0----------0----------|
A|------------------------------------------|
E|------------------0-----0----0------------|

Parte 04 De 04

   Am               A7
E|-------0----------------0-----------------|
B|-----1-1--1-----------2-2--2--------------|
G|---2----------2-----0----------0----------|
D|------------------------------------------|
A|-0-----0----0-----0-----0----0------------|
E|------------------------------------------|

[Refrão – Estrofe 1 e 2]

Parte 01 De 04

   F                G
E|------------------------------------------|
B|-------1----------------3-----------------|
G|-----2-2--2-----------4-4--4--------------|
D|---3----------3-----5----------5----------|
A|------------------------------------------|
E|-1-----1----1-----3-----3----3------------|

Parte 02 De 04

   E7               Am
E|------------------------0-----------------|
B|-------0--------------1-1--1--------------|
G|-----1-1--1---------2----------2----------|
D|---0----------0---------------------------|
A|------------------0-----0----0------------|
E|-0-----0----0-----------------------------|
Parte 03 De 04

   Dm               E7
E|-------1----------------------------------|
B|-----3-3--3-------------0-----------------|
G|---2----------2-------1-1--1--------------|
D|-0-----0----0-------0----------0----------|
A|------------------------------------------|
E|------------------0-----0----0------------|

Parte 04 De 04

   Am               A7
E|-------0----------------0-----------------|
B|-----1-1--1-----------2-2--2--------------|
G|---2----------2-----0----------0----------|
D|------------------------------------------|
A|-0-----0----0-----0-----0----0------------|
E|------------------------------------------|

[Refrão – Estrofe 2]

Parte 01 De 04

   F                G
E|------------------------------------------|
B|-------1----------------3-----------------|
G|-----2-2--2-----------4-4--4--------------|
D|---3----------3-----5----------5----------|
A|------------------------------------------|
E|-1-----1----1-----3-----3----3------------|

Parte 02 De 04

   E7               Am
E|------------------------0-----------------|
B|-------0--------------1-1--1--------------|
G|-----1-1--1---------2----------2----------|
D|---0----------0---------------------------|
A|------------------0-----0----0------------|
E|-0-----0----0-----------------------------|

Parte 03 De 04

   Dm               E7
E|-------1----------------------------------|
B|-----3-3--3-------------0-----------------|
G|---2----------2-------1-1--1--------------|
D|-0-----0----0-------0----------0----------|
A|------------------------------------------|
E|------------------0-----0----0------------|

Parte 04 De 04

   Am               E7
E|-------0----------------------------------|
B|-----1-1--1-------------0-----------------|
G|---2----------2-------1-1--1--------------|
D|--------------------0----------0----------|
A|-0-----0----0-----------------------------|
E|------------------0----------0------------|

[Segunda Parte] 

Parte 01 De 04

   Am
E|-------0----------------0-----------------|
B|-----1-1--1-----------1-1--1--------------|
G|---2----------2-----2----------2----------|
D|------------------------------------------|
A|-0-----0----0-----0-----0----0------------|
E|------------------------------------------|

Parte 02 De 04

   B7
E|-------0----------------0-----------------|
B|-----4-4--4-----------4-4--4--------------|
G|---2----------2-----2----------2----------|
D|------------------------------------------|
A|-2-----2----2-----2-----2----2------------|
E|------------------------------------------|

Parte 03 De 04

   Dm               E7
E|-------1----------------------------------|
B|-----3-3--3-------------0-----------------|
G|---2----------2-------1-1--1--------------|
D|-0-----0----0-------0----------0----------|
A|------------------------------------------|
E|------------------0-----0----0------------|

Parte 04 De 04

   Am               E7
E|-------0----------------------------------|
B|-----1-1--1-------------0-----------------|
G|---2----------2-------1-1--1--------------|
D|--------------------0----------0----------|
A|-0-----0----0-----------------------------|
E|------------------0----------0------------|

[Base Solo] 

Parte 01 De 04

   Am
E|-------0----------------0-----------------|
B|-----1-1--1-----------1-1--1--------------|
G|---2----------2-----2----------2----------|
D|------------------------------------------|
A|-0-----0----0-----0-----0----0------------|
E|------------------------------------------|

Parte 02 De 04

   B7
E|-------0----------------0-----------------|
B|-----4-4--4-----------4-4--4--------------|
G|---2----------2-----2----------2----------|
D|------------------------------------------|
A|-2-----2----2-----2-----2----2------------|
E|------------------------------------------|

Parte 03 De 04

   Dm               E7
E|-------1----------------------------------|
B|-----3-3--3-------------0-----------------|
G|---2----------2-------1-1--1--------------|
D|-0-----0----0-------0----------0----------|
A|------------------------------------------|
E|------------------0-----0----0------------|

Parte 04 De 04

   Am               A7
E|-------0----------------0-----------------|
B|-----1-1--1-----------2-2--2--------------|
G|---2----------2-----0----------0----------|
D|------------------------------------------|
A|-0-----0----0-----0-----0----0------------|
E|------------------------------------------|
00:00 / 00:00
Otros videos de esta canción
Repetir
Otros videos de esta canción
Composición de Celso Castro / Fernando Mendes / Jose Wilson
Colaboración y revisión:
  • Leandro Sandim
906 exhibiciones
  • Simplificar cifrado
    • ½ Tono
    • A
    • Bb
    • B
    • C
    • Db
    • D
    • Eb
    • E
    • F
    • F#
    • G
    • Ab
  • Agregar a la lista
    00:00 / 00:00
    OK