Cifra Club

Aprenda

A Menina Que Não Tem Nada

Capital Inicial

Tab de bajo: Principal
------------------------- |
------------------------- | (riff 1) |
------5-555-------------- |          |
--222-------5-555--7-777- |          |
				     |  (riff)
------------------------- |          |
------------------------- | (riff 2) |
------5-555-------------- |          |
--222-------5-555--2-222- |


-------------------    |
-------------------    | (refrão)
------------------- 7~ |
--777-333-555------    |

(solo)
-------------------------------------------
-------------------------------------------
--------5-555-------------------5-555-7----
--2-222------555-7-777-97-2-222--------5-2~

Estrutura musica:

riff 4x
refrão
riff 4x
refrão
solo
riff
Compositor Alvin L. / Dinho Ouro Preto
Colaboración y revision:
  • Leandro Oliveira
17 reproducciones

0 comentarios

Mostrar mais comentários

¿Conseguiste tocar?

0 Tocaron 0 Ainda não

Grave um vídeo tocando A Menina Que Não Tem Nada e mande pra gente!

00:00 / 00:00
outros vídeos desta música
repetir qualidade Automático
Outros vídeos desta música
00:00 / 00:00
Automático
OK