Cifra Club

Lie In Our Graves

Dave Matthews Band

Tab de bajo: Principal
Kyle McGuire
DMB*

Almost no bass in this song whatsoever. Kinda boring for
a bassist, especially Stefan Lessard, because he has so
much talent. I've included some Red Rocks jamming structure
also, because it can be an extremely fun jam if you just
go all out

Chorus
G|----------------------------------------|
D|----------------------------------------|
A|----------------------------------------|
E|-3--3-3--3-3-5--5-5--5-5-7--7-7-5--5-5--|


(Slow) Breakdown
G|----------------------------------------|
D|----------------------------------------|
A|----------------------------------------|
E|--9---7---5---3-3-5---------------------|

Red Rocks Jamming/Fast Breakdown
G|-------------------9----------3---------|
D|-----------------9----------7-----------|
A|-------------7h9--------7p5-------------|
E|--9*---7*------------5*---------3-3-5---|
====
00:00 / 00:00
Otros videos de esta canción
Repetir
Otros videos de esta canción
Composición de Dave Matthews Band
31 vistas

0 comentarios

Ver todos los comentarios

¿Lograste tocar?

0 Tocaron 0 Aún no

¡Graba un video tocando Lie In Our Graves y envíanoslo!

00:00 / 00:00
OK