Cifra Club

If You Love Somebody Set Them On Fire

Dead Milkmen

Tab de bajo: Principal
Selo Cifra Club: esta cifra foi revisada para atender aos critérios oficiais da nossa Equipe de Qualidade.
This song is quite tricky, because you have to play the
verse so fast. I'm not really sure if the verse is correct,
but I think the chorus is. 

Verse
G-----------------------------------
D-----------------------------------
A------7-7-4-4-7-7-------------7-7--
E--5-5-------------2-2-0-0-5-5------

G-----------------------------------|
D----------------------9-9----------| X 2
A----------2-2-4-4-7-7--------------|
E--2-2-0-0-----------------2-2-0-0--|

Chorus
G----------------------------------------|
D----------------------------------------| X 1
A----------4-4444444---------------------|
E-5-555555-----------2-2222222-0-0000000-|

Verse X 4

Chorus X 1

Verse X 1

Chorus X 1

Bridge
G-----------|
D-----------| X 1
A---4~------|
E-5~--2~-0~-|

The solo is just playing the verse over and over.

Chorus X 1

Bridge
G-----------|
D-----------| X 1
A---4~------|
E-5~--2~-0~-|
Otros videos de esta canción
    19 exhibiciones

    Afinação da cifra

    Afinador online

    Ops (: Contenido disponible solo en portugués.
    OK