Cifra Club

Cielito Lindo

Domínio Público

Chords: Principal (acoustic and electric guitars)
tone: A
G
Ese lunar que tienes
                          D
cielito lindo junto a tu boca
no se lo des a nadie
                       G
cielito lindo a mi me toca

G
Ese lunar que tines
                          D
cielito lindo junto a tu boca
no se lo des a nadie
                       G
cielito lindo a mi me toca

Estibillo:
G            C D               G
Ay, ay, ay, ay  canta y no llores
                       C
por que cantando se alegran
         D              G
cielito lindo los corazones

G5           C5 D5               G5
Ay, ay, ay, ay     canta y no llores
                       C5
por que cantando se alegran
         D5             G5
cielito lindo los corazones

Despues gritan ¡1, 2, 3....  1, 2, 3, va....!

G5            C5 D5               G5
Ay, ay, ay, ay      canta y no llores
                      C5
por que cantando se alegran
B5         C5    C#5                G
cieeeeee liiiii to     lindo los corazones

E|-5-5-2-4-0-5-5-2-4-0-5-5-2-4-0---
B|------------------------------3-0
G|---------------------------------
D|---------------------------------
A|---------------------------------
E|---------------------------------

E|-4-4-4-2-0-----------0-0-0------
B|-----------3-3-0-2-3-------3-2-0-
G|---------------------------------2
D|------------------------------
A|------------------------------
E|------------------------------

E|-9-7-5-2-7-7-5-9-5-0-2-0-2-2-0-10-10-7-4-0-2-2-0------
B|-------------------------------------------------3-2-0-
G|-------------------------------------------------------2
D|------------------------------------------------------
A|------------------------------------------------------
E|------------------------------------------------------
00:00 / 00:00
Other videos of this song
Repeat
Other videos of this song
Composer not found.
Collaboration and Review:
  • Diego Arana
13.858 views
    • ½ Tone
    • A
    • Bb
    • B
    • C
    • Db
    • D
    • Eb
    • E
    • F
    • F#
    • G
    • Ab
  • Add to list
    00:00 / 00:00
    OK