Cifra Club

No puedo olvidar tu voz

El Coyote Y Su Banda

Cifrado: Principal (guitarra y guitarra eléctrica)
tono: D
D            G
Yo no se que hacer sin ti me muero,
A                  F#m
Pues me acostumbre a tenerte entre mis brazos
G             A       D
malamente de ti me enamore

D            G
Yo no se que hacer sin ti me muero,
A                  F#m
Pues me acostumbre a tenerte entre mis brazos
G             A       D
malamente de ti me enamore

CORO:-
            D
No puedo olvidar tu voz
        A    G
Ni tu linda sonrisa
            F#m
Mi corazon se esta muriendo de amor
   G            A
se esta muriendo de amor
     D
Por ti

            D
No puedo olvidar tu voz
        A    G
Ni tu linda sonrisa
            F#m
Mi corazon se esta muriendo de amor
   G            A
se esta muriendo de amor
     D
Por ti






D            G
Cariño mio yo quiero que vuelvas
      A
A tenerte entre mis brazos
      F#m
Como estabamos ayer
G      A           D
Y olvidarnos de todo lo pasado


CORO:-
            D
No puedo olvidar tu voz
        A    G
Ni tu linda sonrisa
            F#m
Mi corazon se esta muriendo de amor
   G            A
se esta muriendo de amor
     D
Por ti


            D
No puedo olvidar tu voz
        A    G
Ni tu linda sonrisa
            F#m
Mi corazon se esta muriendo de amor
   G            A
se esta muriendo de amor
     D
Por ti
            D
No puedo olvidar tu VoooooooooooooooooooZ.



ACORDES:-
      D
E|-------|-------|-------|
B|-------|-------|-------|
G|-------|-------|-------|
D|-------|----1-| |-------|
A|-3-----|-------|-------|
E|-------|----2--|-------|

      A
E|-------|--------|-------|
B|-------|--------|-------|
G|-------|---1----|-------|
D|-------|---2----|-------|
A|-------|---3----|-------|
E|-------|--------|-------|

      G
E|--2--|-------|------|
B|-----|-1-----|------|
G|-----|-------|------|
D|-----|-------|------|
A|-----|-------|------|
E|--3--|-------|------|

      F#m
E|------|------|--1--|------|
B|--3---|------|--1--|------|
G|--4---|------|--1--|------|
D|------|------|--1--|------|
A|------|------|--1--|------|
E|------|------|--1--|------|
00:00 / 00:00
Otros videos de esta canción
Repetir
Otros videos de esta canción
Compositor no encontrado.
1 vistas
    • ½ Tono
    • A
    • Bb
    • B
    • C
    • Db
    • D
    • Eb
    • E
    • F
    • F#
    • G
    • Ab
  • Agregar a la lista

    0 comentarios

    Ver todos los comentarios

    ¿Lograste tocar?

    0 Tocaron 0 Aún no

    ¡Graba un video tocando No puedo olvidar tu voz y envíanoslo!

    00:00 / 00:00
    OK