Cifra Club

Soldadito Marinero

Fito & Fitipaldis

Tablatura: Principal (guitarra)
reproducciones 15.280
Tono: D
Intro: G  D  Bm  A
       G  D  Bm  A  D
               G       D      Bm         A             G       D             Bm A           D
E|------------3-------2-----------------0--------------------------------------------------2--|
B|------------3-------3-----------------2---------------3--------3-------------------------3--|
G|------------0-------2-----------------2-------------0---0--------2-2---------------------2--|
D|-2h4-2-0----0-----0----0h4-7-0h4-4h7--2---------------------0----------0h4-7-2-2/4\2p0-0----|
A|------------2---0---------------------0---2h4-2-0-------------------------------------------|
E|----------3-3-------------------------------------3-----------------------------------------|

A                    G                       D  (riff 1)
Él camina despacito que las prisas no son buenas
Bm                     D                  A     (riff 2)
En su brazo dobladita con cuidado la chaqueta
G                                             D     (riff 3)
Luego pasa por las calles donde los chavales juegan
Bm                        A                 D    (riff 4)
Él también quiso ser niño pero le pilló la guerra

G                                     D D9
Soldadito marinero conociste a una sirena
Bm                                                A   (riff 5)
De esas que dicen “te quiero" si ven la cartera llena
G                                       D    (riff 6)
Escogiste a la más guapa y a la menos buena
Bm                       A                   D
Sin saber como ha venido te ha cogido la tormenta

Interlúdio: G  D  Bm  A  D
                  G                 D                   Bm     A    D
E|----------------3------------------------------------2p0----0----2----
B|------------------3----------------------------------3------2----3----
G|--------------0-----0--------------------------------4------2----2----
D|---2h4-2-0---------------7h9-7----7/\/\/\--2h4-2-0-4------2----0------
A|-------------------------------9--------------------------------------
E|-----------3----------------------------------------------------------

A                            G               D   (riff 7)
Él quería cruzar los mares y olvidar a su sirena
Bm                         D                  A  (riff 8)
La verdad no fue difícil cuando conoció a Mariela
G                                                  D    (riff 9)
Que tenía los ojos verdes y un negocio entre las piernas
Bm                        A                   D
Hay que ver que puntería no te arrimas a una buena

G                                     D  D9
Soldadito marinero conociste a una sirena
Bm                                                A   (riff 10)
De esas que dicen “te quiero" si ven la cartera llena
G                                       D    (riff 11)
Escogiste a la más guapa y a la menos buena
Bm                       A                   D
Sin saber como ha venido te ha cogido la tormenta

Solo: G  D  Bm  A
      G  D  Bm  A  D
               G        D              Bm     A                   G                                         D        Bm -  A - D
E|------------------/\__-------------------------------------------------------/14-10----------------------------------------
B|------------------10--10-----------7----------(/12)--------10-9-8---------12---------12p10h12p10h12----------------7-------
G|---/11--9\7----------------------7---9--7\6\4--------11-11----------11h12---------------------------10h11-7-----------9--7-
D|------------6\5-------------7h9------------------------------------------------------------------------------7h9-7---------
A|---------------------------------------------------------------------------------------------------------------------------
E|---------------------------------------------------------------------------------------------------------------------------

G                            D
   Después de un invierno malo
                  A
   Una mala primavera
                          Bm
   dime por que estás buscando
                       G
   Una lágrima en la arena (x 3)
                           D   (riff final)
   Después de un invierno malo
Acordes para:
    Colaboración y revision:
    • Nuno Ventura
    • Jan Otero

    0 comentarios

    mostrar más comentarios

    ¿Conseguiste tocar?

    3 tocaron 2 aún no

    ¡Graba un vídeo tocando Soldadito Marinero y envianoslo!

    00:00 / 00:00
    outros vídeos desta música
    repetir qualidade Automático
    Outros vídeos desta música
    00:00 / 00:00
    Automático
    OK