Cifra Club

Time To Wonder

Fury In The Slaughterhouse

Cifrado: Versão 3 (guitarra y guitarra eléctrica)
Selo Cifra Club: esta cifra foi revisada para atender aos critérios oficiais da nossa Equipe de Qualidade.
tono: Bm
Intro: x2
Verse: x2

E|---------------------------------------------------------------|
B|---------------------------------------------------------------|
G|--------------------------7-7-7-7-----9-9-9-9------------------|
D|--7-7-7-7-----4-4-4-4-----7-7-7-7-----9-9-9-9-----7-7-7-7------|
A|--7-7-7-7-----4-4-4-4-----5-5-5-5-----7-7-7-7-----7-7-7-7------|
E|--5-5-5-5-----2-2-2-2-----------------------------5-5-5-5------|


Small Refrain: (ausklingen lassen)

E|-------------------------------------------------------------------------|
B|-------------------------------------------------------------------------|
G|-7-7-7-7-----9-9-9-9---------------------------------7-7-7-7-----9-9-9-9-|
D|-7-7-7-7-----9-9-9-9-----5-5-5-5-----4-4-4-4---------7-7-7-7-----9-9-9-9-|
A|-5-5-5-5-----7-7-7-7-----5-5-5-5-----4-4-4-4---------5-5-5-5-----7-7-7-7-|
E|-------------------------7-7-7-7-----2-2-2-2-----------------------------|


Verse: x2

E|---------------------------------------------------------------|
B|---------------------------------------------------------------|
G|--------------------------7-7-7-7-----9-9-9-9------------------|
D|--7-7-7-7-----4-4-4-4-----7-7-7-7-----9-9-9-9-----7-7-7-7------|
A|--7-7-7-7-----4-4-4-4-----5-5-5-5-----7-7-7-7-----7-7-7-7------|
E|--5-5-5-5-----2-2-2-2-----------------------------5-5-5-5------|


Refrain Teil 1: x3

E|-----------------------------------------------------|
B|-----------------------------------------------------|
G|-7-7-7-7-----9-9-9-9-----6-6-6-6---------------------|
D|-7-7-7-7-----9-9-9-9-----4-4-4-4-----4-4-4-4---------|
A|-5-5-5-5-----7-7-7-7-----4-4-4-4-----4-4-4-4---------|
E|-------------------------------------2-2-2-2---------|


Refrain Teil 2: x1

E|-----------------------|
B|-----------------------|
G|-7-7-7-7-----9-9-9-9---|
D|-7-7-7-7-----9-9-9-9---|
A|-5-5-5-5-----7-7-7-7---|
E|-----------------------|
Otros videos de esta canción
    0 exhibiciones
      • ½ Tono
      • Am
      • Bbm
      • Bm
      • Cm
      • C#m
      • Dm
      • Ebm
      • Em
      • Fm
      • F#m
      • Gm
      • G#m
    • Agregar a la lista

    Afinação da cifra

    Afinador online

      Ops (: Contenido disponible solo en portugués.
      OK