Cifra Club

Rehab Doll

Green River

Cifrado: Principal (guitarra y guitarra eléctrica)
Selo Cifra Club: esta cifra foi revisada para atender aos critérios oficiais da nossa Equipe de Qualidade.
tono: E
This tab is a work in progress and will be regularly updated. If you can help tab songs

Intro (0:00)
|----------------|----------------|----------------|----------------|
|----------------|----------------|----------------|----------------|
|----------------|7-------7-------|7h9p7-----------|----------------|
|2---------------|----9-----------|--------9---8---|7---5---7-------|
|2---------------|----------------|----------------|----------------|
|0---------------|----------------|----------------|----------------|

|----------------|----------------|----------------|----------------|
|----------------|----------------|----------------|----------------|
|----------------|7---9---7-------|7h9p7-----------|----------------|
|2---------------|----------------|--------9---8---|7---------------|
|2---------------|----------------|----------------|----------------|
|0---------------|----------------|----------------|----------------|

|----------------|----------------|----------------|----------------|
|----------------|----------------|----------------|----------------|
|----------------|7-------7-------|7h9p7-----------|----------------|
|2---------------|----9-----------|--------9---8---|7---5---7-------|
|2---------------|----------------|----------------|----------------|
|0---------------|----------------|----------------|----------------|

|----------------|----------------|----------------|----------------|
|----------------|----------------|----------------|----------------|
|----------------|7---9---7-------|7h9p7-----------|----------------|
|2---------------|----------------|--------9---8---|7---------------|
|2---------------|----------------|----------------|----------------|
|0---------------|----------------|----------------|----------------|

|------------|------------|------------|------------|------------|------------|
|------------|------------|------------|------------|------------|------------|
|------------|------------|------------|------------|------------|------------|
|2-2-2-2-2-2-|2-2-2-2-2-2-|2-2-2-2-2-2-|2-2-2-2-2-2-|2-2-2-2-2-2-|2-2-2-2-2-2-|
|2-2-2-2-2-2-|2-2-2-2-2-2-|2-2-2-2-2-2-|2-2-2-2-2-2-|2-2-2-2-2-2-|2-2-2-2-2-2-|
|0-0-0-0-0-0-|0-0-0-0-0-0-|0-0-0-0-0-0-|0-0-0-0-0-0-|0-0-0-0-0-0-|0-0-0-0-0-0-|

|----------------|----------------|
|----------------|----------------|
|----------------|----------------|
|9---7---6---7---|6---------------|
|----------------|----9-----------|
|----------------|--------7-------|

Verse (0:23)

Rehab doll's got a bug that bites
|----------------|----------------|
|----------------|----------------|
|5-xx5-xx5---4---|4-xx4-xx4-xx4---|
|5-xx5-xx5---4---|4-xx4-xx4-xx4---|
|3-xx3-xx3---2---|2-xx2-xx2-xx2---|
|----------------|----------------|

She picked it up in a shared blood rite
|----------------|----------------|
|----------------|----------------|
|5-xx5-xx5-xx5---|4-xx4-xx4-xx4---|
|5-xx5-xx5-xx5---|4-xx4-xx4-xx4---|
|3-xx3-xx3-xx3---|2-xx2-xx2-xx2---|
|----------------|----------------|

Take one down pass it around
Take one down pass it around
Take as many down as you can
|----------------|----------------|
|----------------|----------------|
|----------------|----------------|
|----------------|----------------|
|-----7---9^-----|9----7---9------|
|/7--------------|----------------|


Chorus (0:50)


The river in the city is pumping sewage
The river in the city runs brown
The river in the city is pumping sewage
|----------------|----------------|
|----------------|----------------|
|7-----xx7-----xx|9-----xx9-----xx|
|7-----xx7-----xx|9-----xx9-----xx|
|5-----xx5-----xx|7-----xx7-----xx|
|----------------|----------------|

Rehab doll says she craves a fix
|----------------|----------------|
|----------------|----------------|
|7-----xx7-----xx|9-----xx--------|
|7-----xx7-----xx|9-----xx-97676--|
|5-----xx5-----xx|7-----xx------9-|
|----------------|----------------|


Solo (2:25)

Based on A pentatonic, very fast and hard to work out. Here are a few riffs I tried to pick out.

|-----------------------------------------------------------------------------------------------------------
|-----------------------------------------------------------------------------------------------------------
|-------------------------------------------12-9------------------------------------------------------------
|----------------------------------7-8-9-12------987987-----------------------------------------------------
|75757575---------------------------------------------------------------------------------------------------
|--------753-5/7\5-3-0--------------------------------------------------------------------------------------

|-15-17-17^-17-15-14h15p14----------------------------------------------------------------------------------
|--------------------------17-------------------------------------------------------------------------------
|---------------------------------------------12-14-^--12-/12-14-12-11--------------------------------------
|-----------------------------------------------------------------------14----------------------------------
|-----------------------------------------------------------------------------------12^-10-12^-10-12^-10----
|--------------------------------------------------------------------------------------------------------12-

We all fall down

Outro (2:59)
|----------------|----------------|----------------|----------------|
|----------------|----------------|----------------|----------------|
|----------------|7-------7-------|7h9p7-----------|----------------|
|2---------------|----9-----------|--------9---8---|7---5---7-------|
|2---------------|----------------|----------------|----------------|
|0---------------|----------------|----------------|----------------|

|----------------|----------------|----------------|----------------|
|----------------|----------------|----------------|----------------|
|----------------|7---9---7-------|7h9p7-----------|----------------|
|2---------------|----------------|--------9---8---|7---------------|
|2---------------|----------------|----------------|----------------|
|0---------------|----------------|----------------|----------------|

|----------------|----------------|----------------|----------------|
|----------------|----------------|----------------|----------------|
|----------------|7-------7-------|7h9p7-----------|----------------|
|2---------------|----9-----------|--------9---8---|7---5---7-------|
|2---------------|----------------|----------------|----------------|
|0---------------|----------------|----------------|----------------|

|----------------|----------------|----------------|----------------|
|----------------|----------------|----------------|----------------|
|----------------|7---9---7-------|7h9p7-----------|----------------|
|2---------------|----------------|--------9---8---|7---------------|
|2---------------|----------------|----------------|----------------|
|0---------------|----------------|----------------|----------------|

(Getting slower)
|------------|------------|------------|------------|------------|------------|------------|
|------------|------------|------------|------------|------------|------------|------------|
|------------|------------|------------|------------|------------|------------|------------|
|2-2-2-2-2-2-|2-2-2-2-2-2-|2-2-2-2-2-2-|2-2-2-2-2-2-|2-2-2-2-2-2-|2-2-2-2-2-2-|7\----------|
|2-2-2-2-2-2-|2-2-2-2-2-2-|2-2-2-2-2-2-|2-2-2-2-2-2-|2-2-2-2-2-2-|2-2-2-2-2-2-|7\----------|
|0-0-0-0-0-0-|0-0-0-0-0-0-|0-0-0-0-0-0-|0-0-0-0-0-0-|0-0-0-0-0-0-|0-0-0-0-0-0-|5\----------|
00:00 / 00:00
Otros videos de esta canción
Repetir
Otros videos de esta canción
518 exhibiciones
    • ½ Tono
    • A
    • Bb
    • B
    • C
    • Db
    • D
    • Eb
    • E
    • F
    • F#
    • G
    • Ab
  • Agregar a la lista

Afinación de cifrado

Afinador online

    00:00 / 00:00
    OK