Cifra Club

Al lado

Hamlet

Cifrado: Principal (guitarra y guitarra eléctrica)
Acompaña nuestras novedades de Cifra Club en español.
¡Sigue nuestro perfil en Instagram!
tono: Cm
PARTE 1:
E|--------------------------|
B|--------------------------|
G|--------------------------|
D|--2-5| @--------------------|
A|--2----8*-7*-5*-----------|
E|-------6*-5*-3*-----------|

@ TIRAR A  CUERDA HACIA ABAJO
* TOCAR G  O UNA VEZ

PARTE 2:
E|--------------------------|
B|--------------------------|
G|--------------------------|
D|--2-----------------------|
A|--2-5*-8| #-----------------|
E|----3*-6| #-----------------|

* TOCAR G  O UNA VEZ
# TOCAR C S VECES

ESTRIBILLO:
        Se compone de las dos partes ya tabuladas:
        1º- parte 2(cambia ligeramente el ritmo)
        2º- parte 1

parte lenta 1:
E|------------------|
B|------------------|
G|------------------|
D|--2---2-----------|
A|--2---2-8*--------|
E|----3| #--6*--------|

* tocar una vez
# tocar una vez tirando de la cuerda hacia fuera
        -Las dos primeras veces apagar el sonido en la última quinta.
        -Las otras dos dejar que suene la última quinta.

parte lenta 2:
E|------------------|
B|------------------|
G|------------------|
D|--2---2-----------|
A|--2---2-----------|
E|----3| #--3*--------|

# tocar una vez tirando de la cuerda hacia fuera
* tocar dos veces tirando de la cuerda

parte lenta 3:
E|------------------|
B|------------------|
G|------------------|
D|------------------|
A|--5----5-6*-------|
E|--3-4| #-3-4*-------|
Compositor não encontrado.
1 vistas
    • ½ Tono
    • Am
    • Bbm
    • Bm
    • Cm
    • C#m
    • Dm
    • Ebm
    • Em
    • Fm
    • F#m
    • Gm
    • G#m
  • Agregar a la lista

    0 comentarios

    Ver todos los comentarios

    ¿Lograste tocar?

    0 Tocaron 0 Aún no

    ¡Graba un video tocando Al lado y envíanoslo!

    00:00 / 00:00
    Outros vídeos desta música
    Repetir Calidad Automático
    Outros vídeos desta música
    00:00 / 00:00
    Automático
    OK