Cifra Club

Irracional

Hamlet

Cifrado: Principal (guitarra y guitarra eléctrica)
tono: Bbm
 INTRO:
E|--------------|
B|--------------|
G|--------------|
D|--------------|
A|--2-2-2-5-4-3-|
E|--0-0-0-3-2-1-|

 ESTROF :
E|--------------------------|
B|--------------------------|
G|--------------------------|
D|--------------------------|
A|--2---2---2---5---5---5---|
E|--0---0---0---3---3---3---|
    No quiero ................

        La canción en si es la combinación de estos dos riffs
   alternándose. El bajo toca lo mismo.

===========================================
Version de Nicolás García


OTRA VERB ON:

 INTRO(estribillo):
E|------------|
B|------------|
G|------------|
D|------------|
A|--3-6-5-4---|
E|--1-4-3-2---|

 ESTROF :
E|----------|
B|----------|
G|----------|
D|------6---|
A|--3*--4---|
E|--1*------|
    No quiero ................
00:00 / 00:00
Otros videos de esta canción
Repetir
Otros videos de esta canción
Compositor no encontrado.
1 vistas
    • ½ Tono
    • Am
    • Bbm
    • Bm
    • Cm
    • C#m
    • Dm
    • Ebm
    • Em
    • Fm
    • F#m
    • Gm
    • G#m
  • Agregar a la lista

    0 comentarios

    Ver todos los comentarios

    ¿Lograste tocar?

    0 Tocaron 0 Aún no

    ¡Graba un video tocando Irracional y envíanoslo!

    00:00 / 00:00
    OK