Cifra Club

Vivir Es Una Ilusion

Hamlet

Cifrado: Principal (guitarra y guitarra eléctrica)
tono: F
E|E|-------------------------------|E|-------------------------------|-----------------------------|


                                HAMLET:

                   VIVIR ES UNA ILUB ÓN


AFINACIÓN: C-G-D#-A#-F-C

1er Riff

E|-------------------------4-4--4-4-4-4-4-4-4-4-4--5-5-5-5-5-5-5-5-5-5-|
B|--2-2-2-2-2-2-2-2-2-2-2-------|
F  2-2--2-2-2-2-2-2-2-2-2---2-2--2-2-2-2-2-2-2-2-2--3-3-3-3-3-3-3-3-3-3-
G|--0-0-0-0-0-0-0-0-0-0-0-------|
C  0-0--0-0-0-0-0-0-0-0-0E|-------------------------------|----------------
E|-------------------------------|

1er Riff-B

C|--0-0-0-0-0-0-0---0-0-0-0-0-0-0----0-0-0-0-0-0-0---0-0-0-0-0-0-0-----|
--
G  E|-------------------------------|E|-------------------------------|-------
--
D# E|-------------------------------|E|-------------------------------|-------
--
A#|-----------------4------------(4)-5-----------(5)-2------------------|
--
F  2------------(2)-2------------(2)-3-----------(3)-0------------------
--
C  0------------(0)E|-------------------------------|----------------------
--

1er Riff-C

E|-------------------------4-4--4-4-4-4-4-4-4-4-4--5-5-5-5-5-5-5-5-5-5-|
B|--2-2-2-2-2-2-2-2-2-2-2-------|----------
F  2-2--2-2-2-2-2-2-2-2-2---2-2--2-2-2-2-2-2-2-2-2--3-3-3-3-3-3-3-3-3-3-
G|--0-0-0-0-0-0-0-0-0-0-0-5-5-5-5-5-5-5-5-|
C  0-0--0-0-0-0-0-0-0-0-0E|-------------------------------|----------------
E|-------------------------3-3-3-3-3-3-3-3-|

E|-----P.M-------|
2º  Riff

A#|--------0---------------|
F  2-2-2-2-0-2-2-2-2-------
C  0-0-0-0---0-0-0-0-3-5-6-
E|--P.M.-| -P.M---

3er Riff

A# E|-------------------------------|------------
F  8-8--8-7-5-5-5-5-5-5---8-8--8-7-5-5-5-5-5-5
C  6-6--6-5-3-3-3-3-3-3---6-6--6-5-3-3-3-3-3-3

4º Riff

A# E|-------------------------------|E|-------------------------------|-------
E|-------------------------------|E|-------------------------------|-
F  --------10----------10-12-12---------10----------10-12-12---------10-
---------10-12-10-12-14-14-14-14-14-14-14-12-12-12-12-10-10-10-
C  0-0-0-0----0-0-0--0----------0-0-0-0----0-0-0--0----------0-0-0-0----
0-0-0--0E|-------------------------------|------------------------

5º Riff

Bb 9-9-9-5-2-2-2-2-2-2-2--9-9-9-5-2-2-2-2-2-2-2-
F  7-7-7-3-0-0-0-0-0-0-0--7-7-7-3-0-0-0-0-0-0-0-
C  E|-------------------------------|--------------

5º Riff-B

Bb 9-9-9-5-2-2-2-2-2-2-2--9-9-9-5-2-2-2-2-2-2-2-
F  7-7-7-3-0-0-0-0-0-0-0--7-7-7-3-0-0-0-0-0-0-0-
C  7-7-7-3----------------7-7-7-3---------------



    1er Riff
    1er Riff-B
    2º  Riff

    Abre la puerta a un nuevo sol
    he decidido respirar
    fui mucho tiempo oscuridad
    esperando respuestas sin yo preguntar.

    3er Riff

    Escucha, escucha, escucha, ayuda.

    1er Riff-C (2 veces)

    He salido de un lugar al que nunca debi entrar
    he caido hasta sentir que ha llovido sin mojar
    he tocado fondo y ya, ya no debo bajar más
        vivir es una ilusión.

    2º Riff

    Sabes que tu progenitor
    goza de gran reputación
    procura entoces no faltar
    lo siento hijo, asi es la cruda realidad.

    3er Riff

    ¿No puedo, no puedo, no puedo fallarte?

    1er Riff-C (2 veces)

    He salido de un lugar al que nunca debi entrar
    he caido hasta sentir que ha llovido sin mojar
    he tocado fondo y ya, ya no debo bajar más
        vivir es una ilusión.

    1er Riff-B
    4º  Riff (Distorsión suave)

    ¿puede alguien escuchar?
       necesito hablar
    ¿puede alguien responder?
        quiero preguntar
    ¿puede alguien comprender?
        quiero explicar
    ¿puede alguien ayudar?
Compositor não encontrado.
    • ½ Tono
    • A
    • Bb
    • B
    • C
    • Db
    • D
    • Eb
    • E
    • F
    • F#
    • G
    • Ab
  • Agregar a la lista

    0 comentarios

    Ver todos los comentarios

    ¿Lograste tocar?

    0 Tocaron 0 Aún no

    ¡Graba un video tocando Vivir Es Una Ilusion y envíanoslo!

    00:00 / 00:00
    Outros vídeos desta música
    Repetir Calidad Automático
    Outros vídeos desta música
    00:00 / 00:00
    Automático
    OK